» » »

Get Delirious Tabs (ver.2)

Artists:  A B C D E F G H I J K L M N O P Q R S T U V W X Y Z # 

Get Delirious Tabs (ver.2)

Lil Chris
Rating:
0/5 (0 votes)

Tabs too difficult? Try these video lessons and learn fast.
                e|-----------------------------------------------|
B|-----------------------------------------------|
G|-----------------------------------------------| x3
D|-----9-9---9---9---9-----9-9---9---9---9---9---|
A|---7-----7---7---7---7-7-----7---7---7---7-----|
E|-----------------------------------------------|

e|-------------------|----------------------------|
B|-------------------|----------------------------|
G|-------------------|----------------------------|
D|-------------------|----------------------------|
A|--9-9----9-8-7-----|--12-12---14-14-------------|
E|--7-7----7-6-5-----|--10-10---12-12-------------|

back to first part but only once

then back to the first bar of the second part
the second bar changes to

e|-----------------------------------------------|
B|-----------------------------------------------|
G|-----------------------------------------------|
D|-----------------------------------------------|
A|--9-9-9----------------------------------------|
E|--7-7-7----------------------------------------|


the bridge is...
e|-----------------------------------------------|
B|-----------------------------------------------|
G|---------9--7----------------------------------|
D|------10------9--------------------------------|
A|----7-----------10-7---------------------------|
E|--8--------------------------------------------|

e|-----------------------------------------------|
B|-----------------------------------------------|
G|--------7--5-----------------------------------|
D|------8------7---------------------------------|
A|----5----------8-5-----------------------------|
E|--6--------------------------------------------|

e|-----------------------------------------------|
B|-----------------------------------------------|
G|--------5--3-----------------------------------|
D|------6----------------------------------------|
A|----3------------------------------------------|
E|--4--------------------------------------------|
 
The Chorus then goes

e|-----------------------------------------------|
B|-----------------------------------------------|
G|-----------------------------------------------|
D|--10-10-10-10-10-10-10-10----------------------|
A|--8--8--8--8--8--8--8--8-----------------------|
E|-----------------------------------------------|

e|-----------------------------------------------|
B|-----------------------------------------------|
G|-----------------------------------------------|
D|-8-8-8-8-8-8-8-8-8-8-8-8-----------------------|
A|-6-6-6-6-6-6-6-6-6-6-6-6-----------------------|
E|-----------------------------------------------|

e|-----------------------------------------------|
B|-----------------------------------------------|
G|-----------------------------------------------|
D|------------8-8-8-8----------------------------|
A|-8-8-8-8----6-6-6-6----8-8-8-8-----------------|
E|-6-6-6-6-------------6-6-6-6-------------------|

You then go back to the second version of the second bar of the bridge

And then you play the whole thing over again, after the chorus you go into

e|-----------------------------------------------|
B|-----------------------------------------------|
G|-----------------------------------------------|
D|-10--------------------------------------------| x4
A|-8---10--10--6--6--8--8------------------------|
E|-----8---8---4--4--6--6------------------------|

you now go back to the first part and play that once


The very end bar is this

e|-----------------------------------------------|
B|-----------------------------------------------|
G|-----------------------------------------------|
D|-----------------------------------------------|
A|--9-9-9----------------------------------------|
E|--7-7-7----------------------------------------|
            
Tabs too difficult? Try these video lessons and learn fast.




comments powered by Disqus
↑ Back to top | Tablatures and chords are parodies/interpretations of the original songs. You may use it for private study, scholarship, research or language learning purposes only