» » »

The Eagle Tabs (ver.2)

Artists:  A B C D E F G H I J K L M N O P Q R S T U V W X Y Z # 

The Eagle Tabs (ver.2)

Light This City
Rating:
5/5 (1 vote)

Hard to play? Try these video lessons and learn fast.
                (Intro)
The Eagle
Light This City


This is my first tab, it took me a little bit to learn it since I just now started
I didn't work out the harmony to guitar 1's part bc I didn't have much time.  If you 
to take it and use it go ahead, just give me credit.
(Guitar 1)
D|---------------------------------------------------|
A|---------------------------------------------------|
F|---------------------------------------------------|
C|----10-7~~-10-10/12-9-----------10-10------12-9----|
G|----------------------10~~~----8-------8-10-----10~|
C|---------------------------------------------------|

(Guitar 2)
D|------------------------|
A|------------------------|
F|------------------------|
C|----7--5--3--5--7--5--3-|
G|----7--5--3--5--7--5--3-|
C|----7--5--3--5--7--5--3-|
            
Hard to play? Try these video lessons and learn fast. | Correct




comments powered by Disqus
↑ Back to top | Tablatures and chords are parodies/interpretations of the original songs. You may use it for private study, scholarship, research or language learning purposes only