>
 >
Dead Head Blues 1

Dead Head Blues 1 Chords

Lightspeed Champion - Dead Head Blues 1 chords, tabs, tablatures, lyrics

Guitar lessons | Add/correct | Request | Top 50 tabs Artists:  A B C D E F G H I J K L M N O P Q R S T U V W X Y Z 0-9

Dead Head Blues 1 Chords – Lightspeed Champion

CD, Sheet music, Poster

Do you like Dead Head Blues 1? Share with your friends now
ChordsChords v2Ukulele
Capo 1

Dadd4/F#: 200033

 G                   Dadd4/F#
 Nothing seems to be happening
 Cm                     G
 Except the shift from your world
 G                   Dadd4/F#
 A desert walk and a sandstorm
 Cm                     G
 A ball of debt in my phone


 Em (barré 7)
 I know you're happy
 Bm (barré 7)
 And that's lovely
 Am
 It won't keep me
 D
 Complete

 Em (barré 7)
 And I saw us
 Bm (barré 7)
 In twenty years time
 Am
 In the Midwest
 D
 You in your best dress


 G                   Dadd4/F#
 A little older than before
 Cm             G
 To see you now, such a joy
 G                   Dadd4/F#
 But when I'm close, can't fight my heart
 Cm             G
 You talk of him and I just die


 Em (barré 7)
 I know you're happy
 Bm (barré 7)
 And that's lovely
 Am
 It won't keep me
 D
 Complete


 Em (barré 7)
 Oh, and I saw us
 Bm (barré 7)
 In twenty years time
 Am
 In the Midwest
 D
 With you in your best dress

 Oh, oh, oh, oh

 Solo 1:

Em G Em G
C  C G  Dadd4/F#
C  C D  D

e|--------------------------------------------------------------|
B|--------------------------------------------------------------|
G|-----------------------0--------------------------------------|
D|------2-0-2-0------0-------0----------------------------------|
A|--------------2------2---2---2--------------------------------|
E|-0---0----------3---------------------------------------------| x2

e|---------------------------------------------------------------------|
B|----------------------------------------5-------5--------7-------7---|
G|-----------------------0-------0--------5-------5--------7-------7---|
D|-2---2--4-5-4-2-0------0-------0--------5-------5--------7-------7---|
A|---------------------2---2---0---0--3-3---3-3-3---3--5-5---5-5-5---5-|
E|-------------------3--------2----------------------------------------|
        

 Solo 2:

(en boucle jusqu'à la fin de la chanson)
G Em Am-C D

e|-------6-6h8-6-------------------6--6-8h9-8-6----------------|
B|-9---9---------9-8-8--6--8-6-8-9--------------9--9--8--------|
G|-------------------------------------------------------------|
D|-------------------------------------------------------------|
A|-------------------------------------------------------------|
E|-------------------------------------------------------------|



 G
 Just meet this guy
 Em                     Am-C  D 
 See me go appreciate you
 
 I know you'll realize that soon
 G                Em            Am-C D
 It's the allergies, isn't that great news?
                                G       Em      Am-C    D
 Take over my dead head blues oooooh

 G      Em      Am-C    D
 My dead head blues, oh
 G      Em      Am-C    D
 My dead head blues, oh
 G      Em      Am-C    D
 My dead head blues, oh
                        
 Take over my dead





Comments


Popular Lightspeed Champion tabs & chords
Everyone I Know Is Listening To Crunk Chords
Never Meant To Hurt You Chords
Everyone I Know Is Listening To Crunk Tabs
Galaxy Of The Lost Tabs
Marlene Tabs
Marlene 1 Tabs
Midnight Surprise 2 Tabs
Dead Head Blues Ukulele
Scattered Cover Ukulele
The Flesh Failures Ukulele


Song lyrics



↑ Back to top | Tablatures and chords are parodies/interpretations of the original songs. You may use it for private study, scholarship, research or language learning purposes only
© 2014 AZChords.com Contact us | Privacy policy | DMCA | Add/correct tabs | Request tabs | Top 50 tabs