» » »

Ligabue, Radio Radianti Tabs (ver.1)

Artists:  A B C D E F G H I J K L M N O P Q R S T U V W X Y Z # 

Radio Radianti Tabs (ver.1)

Ligabue Tabs
 Rating:
4/5 (4 votes)
Radio Radianti lessons Tabs too difficult? Try these video lessons and learn fast
1
                ~~~~~~~~~~~~~~
RADIO RADIANTI
~~~~~~~~~~~~~~

Intro: Em G Bm A Em (x2)

[Grazie per la TAB a Andrea Zanovello]

--0-3-0-------------0-3-0--------0-3-0-----------0-3-0--------|
--------3-0---------------3-0---------3-0--------------3------|
------------2-0---------------------------2-0------------0----|
-----------------2----------------------------2---------------|
--------------------------------------------------------------|
--------------------------------------------------------------|

                Harm.
--0-3-0-------------0-3-0-----------------0-3-0-----------0-3-0--------|
--------3-0---------------3-0-----5------------3-0--------------3------|
------------2-0------------------5-----------------2-0------------0----|
-----------------2--------------5----------------------2---------------|
-----------------------------------------------------------------------|
-----------------------------------------------------------------------|

[Altra versione di Alessandro Marini]

                                                     +----    +----
  [Intro/Riff]MIm                                    | 1      | 2 (2^chit)
e:-----3----------|----------------|-----3----------|--------|-----<7>----|
B:/5-------5-3----|----------------|-5-------5-3----|--------|----5-------|
G:---------------4^4---2---0-------|---------------4^4~------|---4--------|
D:----------------|---------(2)2-2-|----------------|--------|------------|
A:----------------|----------------|----------------|--------|------------|
E:----------------|----------------|----------------|--------|------------|
   1 . 2 . 3 . 4 . 1 . 2 . 3 . 4 .   1 . 2 . 3 . 4 . 1 2 3 4  1  2  3  4

  SIm               LA                MIm
e:-----3----------|-----------------|-----3----------|---------|
B:/5-------5-3----|-----------------|-5-------5-3----|---------|
G:---------------4^4----2---0-------|---------------4^4~-------|
D:----------------|----------(2)2-2-|----------------|---------|
A:----------------|-----------------|----------------|---------|
E:----------------|-----------------|----------------|---------|
   1 . 2 . 3 . 4 .  1 . 2 . 3 . 4 .   1 . 2 . 3 . 4 .  1 2 3 4


Em
   Come vi va io lo so gia'
siete sintonizzati qua
           Bm
state pero'
           A
buoni perche'
             Em
forse vi do il tempo che fa

sapete che al mio tre
tutti dovrete ridere
sarete piu' belli cosi':
ridete e state in ordine
        Em
Radiogommina
radioceretta
             Bm         A
radioabbronzante radiogel
          Em
radiocivetta

Ditemi che non siete giu'
o la mia missione non conta piu'
ho qua per voi l'ultimo mix:
cambia la vita questo qui

Radiofelici
radiocontenti
radiosorrisi e baci smack
radio radianti

scrivimi poi
per dirmi che
mi ami quanto io amo te
noi siamo qui, quando lo vuoi
ci accendi e poi ci siamo noi

Radioamici
radiopresenti
radiocisiamosolonoi
radioabbondanti
            
Submit corrections

comments powered by Disqus
↑ Back to top | Ligabue Tabs for Radio Radianti. Lyrics for acoustic guitar and electric guitar. 1 Tablatures and chords are parodies/interpretations of the original songs. You may use it for private study, scholarship, research or language learning purposes only