» » »

Ligabue, Kay E' Stata Qui Tabs (ver.1)

Artists:  A B C D E F G H I J K L M N O P Q R S T U V W X Y Z # 

Kay E' Stata Qui Tabs (ver.1)

Ligabue Tabs
 Rating:
4/5 (4 votes)
Kay E' Stata Qui lessons Tabs too difficult? Try these video lessons and learn fast
1
                KAY E' STATA QUI

   [Intro/Rit]
   Mim7[suonato al 7mo capo]  RE4[al 5nto capo]
e:--------10-----------10----|-------10---------10-----|
B:--8-7-8--------8-----------|-8-7-8-------8-----------|
G:--7------------------------|-7-----------------------|
D:---------------------------|-------------------------|
A:---------------------------|-------------------------|
E:---------------------------|-------------------------|
    1 . 2  . 3 . 4 . 5 . 6 .   1 . 2 . 3 . 4 . 5 . 6 .

  DO[al 3rzo capo]          SOL         SOL/FA#
e:-------10---------10-----|-------------------------|
B:-8-7-8-------8---------8-|-----8-----8-----8-------|
G:-------------------------|-------------------------|
D:-------------------------|-7-9---------7-9---------|
A:-------------------------|-------------------------|
E:-------------------------|-------------------------|
   1 . 2 . 3 . 4 . 5 . 6 .   1 . 2 . 3 . 4 . 5 . 6 .

MI-7
Giochi ancora forte
RE
giochi solo sola
DO                                SOL FA#-/SOL
o giochi ancora un po' con me?
MI-7
E' come a moscacieca
RE
vinci e non ti trovo
DO                                SOL FA#-/SOL
forse cerco quella che non c'e'...

MI-7 FA#-/SOL DO
MI-7 FA#-/SOL DO

MI-7
Ridi di chi bacia
   RE
il culo alla sua morte
DO                       SOL FA#-/SOL
non ho visto niente io  e tu
MI-7
dici di aver visto
RE
sempre troppo forte
DO                        SOL  FA#-/SOL
sempre accesa la tua spia

[bridge_on]
    LA-    SI/SOL DO    SI/SOL DO       RE
e lavori ancora d'ago a modo   tuo...
[bridge_off]

[chorus_on]
MI-7               RE    DO
Niente e' piu' uguale
                     SOL
kay e' stata qui
        FA#-/SOL
kay e' stata qui
MI-7               RE
niente e' piu' uguale
  DO  SOL FA#-/SOL
sara' mai...
[chorus_off]

MI-7 RE DO SOL FA#-/SOL

MI-7
Giochi in mezzo ai giochi
RE
di tutti gli idioti
DO                        SOL FA#-/SOL
che han risposte facili
MI-7
giochi e vuoi che rida
   RE
il test e' negativo
DO                       SOL FA#-/SOL
giochi a farmi dire si
[bridge_on]
    LA-  SI/SOL DO      SI/SOL DO       RE
e lavori sempre d'ago a modo   tuo...
[bridge_off]

[chorus_on]
MI-7               RE    DO
Niente e' piu' uguale
                     SOL
kay e' stata qui
        FA#-/SOL
kay e' stata qui
MI-7               RE
niente e' piu' uguale
  DO  SOL FA#-/SOL
sara' mai...
[chorus_off]

MI-7 FA#-/SOL DO [X4]
[Assolo di tromba, su 2 giri di strofa + bridge]

[chorus_on]
MI-7               RE    DO
Niente e' piu' uguale
                     SOL
kay e' stata qui
        FA#-/SOL
kay e' stata qui
MI-7               RE
niente e' piu' uguale
  DO  SOL FA#-/SOL
sara' mai...
MI-7               RE    DO
Niente e' piu' uguale
                     SOL
kay e' stata qui
        FA#-/SOL
kay e' stata qui
MI-7               RE
niente e' piu' uguale
  DO  SOL FA#-/SOL
sara' mai...
[chorus_off]

MI-7 FA#-/SOL DO [X3]
MI-7




[Strofa]
  mi-7   re    do    sol  fa#-/sol
e|--3--|--3--|--3--|--3--|--3-----|
b|--3--|--3--|--3--|--3--|--3-----|
g|--0--|--2--|--0--|--0--|--0-----|
d|--0--|--0--|--2--|--0--|--2-----|
a|--2--|--X--|--3--|--2--|--0-----|
e|--2--|--X--|--0--|--3--|--2-----|

[bridge]
   la-  si/sol  do   re
e|--0--|--0--|--0--|--2--|
b|--1--|--3--|--3--|--3--|
g|--2--|--0--|--0--|--2--|
d|--2--|--0--|--2--|--0--|
a|--0--|--2--|--3--|--0--|
e|--X--|--0--|--0--|--X--|
            
Submit corrections

comments powered by Disqus
↑ Back to top | Ligabue Tabs for Kay E' Stata Qui. Lyrics for acoustic guitar and electric guitar. 1 Tablatures and chords are parodies/interpretations of the original songs. You may use it for private study, scholarship, research or language learning purposes only