>
 >
Il Meglio Deve Ancora Venire

Il Meglio Deve Ancora Venire Guitar Tabs

Ligabue - Il Meglio Deve Ancora Venire chords, tabs, tablatures, lyrics

Guitar lessons | Add/correct | Request | Top 50 tabs Artists:  A B C D E F G H I J K L M N O P Q R S T U V W X Y Z 0-9

Il Meglio Deve Ancora Venire Guitar Tabs – Ligabue

CD, Sheet music, Poster

Do you like Il Meglio Deve Ancora Venire? Share with your friends now
Tabs
IL MEGLIO DEVE ANCORA VENIRE TAB

        -------|-------------------------------------|---------------------------------|
        --14/--|--10-10-10-10-10-10-10---------------|---------------------------------|
GUITAR  --13/--|-----------------------9-9-9-9-9-9-9-|---------------------------------|
   1    -------|-------------------------------------|-7-7-7-7-7-7-7-7-7-7-7-7-7-7-----|
        -------|-------------------------------------|---------------------------------|
        -------|-------------------------------------|---------------------------------|

        --9-/--|--5----------------------------------|-2-------------------------------|
GUITAR  --9-/--|--5----------------------------------|-2-------------------------------|
   2    --9-/--|--5----------------------------------|-2-------------------------------|
        --11/--|--7----------------------------------|-4-------------------------------|
        --11/--|--7----------------------------------|-4-------------------------------|
        --9-/--|--5----------------------------------|-2-------------------------------|



        -----------------------------|--------------|----------------------------------|
        ---------10-10-10-10-10-10-10|--------------|----------------------------------|
GUITAR  -----------------------------|-9-9-9-9-9-9-9|---------------9-9-9-9-9-9-9------|
  1     -----------------------------|--------------|-7-7-7-7-7-7-7-7-7-7-7-7-7-7------|
        -----------------------------|--------------|----------------------------------|
        -----------------------------|--------------|----------------------------------|

        --------7--------------------|------5-------|--------7-------------------------|
GUITAR  --------7--------------------|------5-------|--------7-------------------------|
  2     --------9--------------------|------7-------|--------9-------------------------|
        --------9--------------------|------7-------|--------9-------------------------|
        --------7--------------------|------5-------|--------7-------------------------|
        --------7--------------------|------5-------|--------7-------------------------|



           A   A     A    A      F#-  F#-     F#-  F#-                                   
                                 Ti vengo a prendere ...|
        ----------------------|---2----2-------2----2---|
        ---2---2-----2----2---|---2----2-------2----2---|
GUITAR  ---2---2-----2----2---|---2----2-------2----2---|
  1     ---2---2-----2----2---|---4----4-------4----4---|
        ----------------------|---4----4-------4----4---|
        ----------------------|---2----4-------2----2---|


|------------------------------------|-----------------------------|
|-10-10-10-10-10-10-10---------------|-----------------------------|
|----------------------9-9-9-9-9-9-9-|--------------9-9-9-9-9-9-9--|
|------------------------------------|7-7-7-7-7-7-7-7-7-7-7-7-7-7--|
|------------------------------------|-----------------------------|
|------------------------------------|-----------------------------|

        ----------------------|-------------------------|
GUITAR  ----------------------|-------------------------|
  2     ----7--6--9--------6--|--7--6--9--------6-------|
        -------------7--9-----|-----------7--9----------|
        ----------------------|-------------------------|
        ----------------------|-------------------------|

|------------------------------------|-----------------------------|
|------------------------------------|-----------------------------|
|-----7--6--9--------6---------------|----7---6---9----------------|
|--------------7--9------------------|----------------7---9/0------|
|------------------------------------|-----------------------------|
|------------------------------------|-----------------------------|





           re
Ti vengo a prendere perché non ho
la
scelta, perché so

     vivere una sera per volta...
        ------------------||
        -----------5--5---||
GUITAR  -----------4--4---||  x2
  1     ---2--2-----------||
        ---2--2-----------||
        ------------------||

mi
vivere una sera per volta
            re
io ti vengo a prendere perchè
     la
dove andiamo
          mi
non importa

        ---------------------------------|
        ---------------------------------|
GUITAR  ---------------------------------|
  1     ---------------------------------|
        -------5--------------5-6-7------|
        -7-5-7---7-5-7--5-6-7------------|


Ti voglio credere per come cammini
per le promesse che comunque mantieni
io ti voglio credere per quello che chiedi
e che non chiedi


da *** a *** gli accordi per la chitarra 2 vanno suonati così...

        re            la              mi
       -2--2-----------0--0------------0--0----------|
       -3----3---------2----2----------0----0--------|
GUITAR -2------2-------2------2--------1------1------|  e così via...
  1    -0------0-------2------2--------2------2------|
       -0--------------0---------------2-------------|
       -0--------------0---------------0-------------|

si-         ***re
è una città piuttosto dura
la              mi
dipende quanto puoi pagare
si-                 re
e tu che sai quali porte aprire
la             mi***    si-
sembri sapere come va a finire
re
sei qui per dire
mi,
che il meglio deve ancora

#Rit

deve ancora veniiiire...
              ----------------|
              ----------------|
              --7-6-9-----6---|
              --------7-9-----|
              ----------------|
              ----------------|

              ----------------|
              ----------------|
              --7-6-9-----6---|
              --------7-9-----|
              ----------------|
              ----------------|
GUITAR 2
              ----------------|
              ----------------|
              --7-6-9-----6---|
              --------7-9-----|
              ----------------|
              ----------------|

              ----------------|
              ----------------|
              --7-6-9---------|
              --------7-9-----|
              ----------------|
              ----------------|



              ----------------------------------------------------|
              --10-10-10-10-10-10-10------------------------------|
              -----------------------9-9-9-9-9-9-9----------------|
GUITAR 1      -------------------------------------7-7-7-7-7-7-7--|
              ----------------------------------------------------|
              ----------------------------------------------------|

|-------------------------------------------------------------------|
|-10-10-10-10-10-10-10----------------------------------------------|
|----------------------9-9-9-9-9-9-9---------------9-9-9-9-9-9-9----|
|------------------------------------7-7-7-7-7-7-7-7-7-7-7-7-7-7----|
|-------------------------------------------------------------------|
|-------------------------------------------------------------------|

la    fa#-
venire   che il meglio deve ancora
mi re si-
venire

Re                                la
ti voglio credere perchè tu ci credi
           Mi
perchè sei dolce tanto quanto sei dura
              Re                 la              Mi
io ti voglio credere perchè sei sicura di qualcosa
ti vengo a prendere mi aspetto di tutto

per forza perfetto...
      --------------------------------|
      --------------------------------|
      ---------9--9----------9--9-----|
      ---------9--9----------9--9-----|
      --7--7-----------7--7-----------|
      --8--8-----------8--8-----------|

e non dev'essere per forza perfetto
io ti vengo a prendere perchè ciò che è fatto
adesso è fatto

Sim-re-la-mi-
E la città ci fa passare
ha altri problemi a cui pensare
e tu che sai bene dove andare
devi sapere come va a finire
sei qui per dire
mi devi dire

che il meglio deve ancora venire
sei qui per dire
il meglio deve ancora venire

#Bridge

DA ^^^ A ^^^ GLI ACCORDI VANNO SUONATI COSì...

 re        mi        la
--2-x-x-----0---------0------------|
--3-x-x-----0---------2-x-x--------|
--2-x-x-----1-x-x-----2-x-x--------|  e così via...
--0---------2-x-x-----2-x-x--------|
--0---------2-x-x-----0------------|
--0---------0---------0------------|

^^^re
c’è qualcosa fra te e la vita
             mi
--------------0-----------|
--------------0-----------|
--------------1-----------|
--------------2-----------|
----8-7-5-3---2-----------|
--------------0-----------|

mi
che non ho ancora conosciuto
          la
-----------0------------|
-----------2------------|
-----------2------------|
-----------2------------|
-------2---0------------|
---2-3-----0------------|

la
mentre ridi così
si-
facilmente
re
c’è qualcosa fra te e la vita
mi
chissà quanto vi conoscete
sol
mentre ridi, mentre ridi

si mi^^^

***si-
e la città
re
risplende ancora
la
anche con poche
mi
luci fuori
e tu che non cambi direzione
                           re***
sai di sicuro come va a finire


si-
sei qui per dire
re
mi devi dire
mi
il meglio deve ancora
venire


OUTRO

        ---------------------------|
        ---------------------------|
GUITAR  ---------------------------| x3
   1    ---------------------------|
        ---5--4--7--------4--------|
        ------------5--7-----------|

                            A
        ----------------------------|
        --------------------2-------|
        --------------------2-------|
        --------------------2-------|
        --5--4--7-----7-------------|
        -----------5-----9----------|





Comments


Popular Ligabue tabs & chords
Cosa Vuoi Che Sia Chords
Nato Per Me Chords
Il Giorno Di Dolore Che Uno Ha 1 Tabs
Il Gringo '94 Tabs
Libera Nos 1 Tabs
Qualcuno Ha Visto Per Caso Il Mio Cane Blu Elettrico Monofase Tabs
Rane A Rubiera Blues Tabs
Viva! Tabs
Voglio Volere Tabs
Giorno Per Giorno Ukulele


Song lyrics



↑ Back to top | Tablatures and chords are parodies/interpretations of the original songs. You may use it for private study, scholarship, research or language learning purposes only
© 2014 AZChords.com Contact us | Privacy policy | DMCA | Add/correct tabs | Request tabs | Top 50 tabs