» » »

Ligabue, Il Cielo E' Vuoto O Il Cielo E' Pieno Tabs (ver.1)

Artists:  A B C D E F G H I J K L M N O P Q R S T U V W X Y Z # 

Il Cielo E' Vuoto O Il Cielo E' Pieno Tabs (ver.1)

Ligabue Tabs
 Rating:
4/5 (4 votes)
Il Cielo E' Vuoto O Il Cielo E' Pieno lessons Tabs too difficult? Try these video lessons and learn fast
                IL CIELO E' VUOTO O IL CIELO E' PIENO

[Intro e riff principale] (con distorsione):

e:------------------------|-------------------------|
B:------------------------|-------------------------|
G:------------------------|-------------2--4--2--0--|
D:-------2----------0-----|-------2-----------------|
A:--0-------0--2-------2--|--3-------3--------------|
E:------------------------|-------------------------|

------------------------|-------------------------|
------------------------|-------------------------|
------------------------|-------------2--4--2--0--|
-------2----------0-----|-------2-----------------|
--0-------0--2-------2--|--3-------3--------------|
------------------------|-------------------------|

suonate piu' adagio (quasi non si sentono sul CD)
vvvvvvvvvvvvvvvvvvvvvvvvvvvvvvvvvvvvvvvvvvvvvvvvvvvvvv
--------------------------|--------------------------|
--------------------------|-----------------0--------|
--------0-----------0-----|--------0-----2-----2--0--|
-----2-----0-----0-----0--|-----0-----0--------------|
--0-----------2-----------|--3-----------------------|
--------------------------|--------------------------|

[oppure: stesse note ma suonate una corda sopra
(si vede che finalmente sto imparando le scale? :) ]

e:------------------------|-------------------------|
B:------------------------|-------------------------|
G:------------------------|-------------------------|
D:------------------------|-------------7--9--7--5--|
A:-------7----------5-----|-------7-----------------|
E:--5-------5--7-------7--|--8-------8--------------|

e:------------------------|-------------------------|
B:------------------------|-------------------------|
G:------------------------|-------------------------|
D:------------------------|-------------7--9--7--5--|
A:-------7----------5-----|-------7-----------------|
E:--5-------5--7-------7--|--8-------8--------------|

suonate piu' adagio (quasi non si sentono sul CD)
vvvvvvvvvvvvvvvvvvvvvvvvvvvvvvvvvvvvvvvvvvvvvvvvvvvvvv
--------------------------|--------------------------|
--------------------------|--------------------------|
--------------------------|--------------------------|
--------5-----------5-----|--------5-----7--9--7--5--|
-----7-----5-----5-----5--|-----5-----5--------------|
--5-----------7-----------|--8-----------------------|

[main riff]

  G                      D
------------------------|------------------------|
-------1--0-------------|---------------0--------|
--0----------2--0----2--|------2--0--2-----2--0--|
------------------------|------------------------|
------------------------|------------------------|
------------------------|------------------------|

Am7           G             C            D
--------------------------|--------------------------|
--------------------------|--------------------------|
--------0-----------0-----|--------0-----2--4--2--0--|
-----2-----0-----0-----0--|-----0-----0--------------|
--0-----------2-----------|--3-----------------------|
--------------------------|--------------------------|

Altra versione:
e:------------------------|---------------------|
B:------------------------|---------------------|
G:------------------------|-------------2-4-2-0-| X2
D:-------2----------0-----|-------2-------------|
A:--0-------0--2-------2--|--3-------3----------|
E:------------------------|---------------------|

e:--------------------------|----------------------|
B:--------------------------|----------------------|
G:--------0-----------0-----|--------0-----2-4-2-0-|
D:-----2-----0-----0-----0--|-----0-----0----------|
A:--0-----------2-----------|--3-------------------|
E:--------------------------|----------------------|


e:--------------------|-----------------|
B:--0---1-0---------3-|-----------------|
G:--0--------2-0----2-|-0-2-4-2-0-------|
D:--------------------|-----------------|
A:--------------------|-----------------|
E:--------------------|-----------------|


e:--------------------------|----------------------|
B:--------------------------|----------------------|
G:--------0-----------0-----|--------0-----2-4-2-0-|
D:-----2-----0-----0-----0--|-----0-----0----------|
A:--0-----------2-----------|--3-------------------|
E:--------------------------|----------------------|


D         G             D
Il mio amico Remo e' cotto
        Am7  G      C      D
son troppe sere che va troppo in la'
 G             D
e ci va di brutto
       Am7       G       C      D
troppe sveglie con un cerchio cane
Em          C
   troppe fughe
       Am7         C                 Bm
da dei letti solo per non dire un ciao
                C
per non baciare mai.
               Am7          G        C
Se il cielo e' vuoto o il cielo e' pieno
D        Am7            C      D      G  D  Am7 G  C D
lui dice che ci guardera' da solo poi.
[main riff]
D         G             D
Il mio amico Cico e' cotto

         Am7      G       C        D
non l'ho mai beccato sciolto o ciucco
 G             D
e' cosi' corretto
         Am7     G           C   D
che ogni tanto io lo invio a cagare
Em          C
ma bene o male
         Am7
fra il rosario e il Valium
  C            Bm
io lo so cos'ha
                 C
di cui non mi dira'.
               Am7          G        C
Se il cielo e' vuoto o il cielo e' pieno
D         Am7        G        C      D     G  D  Am7 G  C D
il giorno che gli viene un dubbio crepera'.
[main riff]

      Am7        G           C       D   G  D  Am7 G C D
Se il cielo e' vuoto o il cielo e' pieno________________

[solo]
Em  C  Am7 G  C

Bm
Sotto il cielo di Bologna
 C
fra felicita' e vergogna
   Em    C              Am7  C
c'e' gia' la spinta per vivere.
Bm
Sotto il cielo di Dublino
   C
Cairo, Bogota' e Pechino
   Em      C            Am7  C
c'e' gia' il motivo per vivere

        G            D
Io non so se sono cotto
      Am7             C
certi giorni non mi basta
D      G               D
cio' vedo e sento e tocco
      Am7      G       C    D
pero' so che non so stare fermo
            C
e so che cerco
         Am7           C             Bm
e so che tante volte trovo e perdo qui
              C
fra corpi solidi
               Am7          G        C
Se il cielo e' vuoto o il cielo e' pieno
D         Am7        G   C     D
il giorno che ci guarderemo si sapra'

[main riff]
sfuma e finisce in G
            
Submit corrections

comments powered by Disqus
↑ Back to top | Ligabue Tabs for Il Cielo E' Vuoto O Il Cielo E' Pieno. Lyrics for acoustic guitar and electric guitar. Tablatures and chords are parodies/interpretations of the original songs. You may use it for private study, scholarship, research or language learning purposes only