» » »

Ho Perso Le Parole Bass tabs (ver.1)

Artists:  A B C D E F G H I J K L M N O P Q R S T U V W X Y Z # 

Ho Perso Le Parole Bass tabs (ver.1)

Ligabue
Rating:
0/5 (0 votes)

Hard to play? Try these video lessons and learn fast.
                -------------------------------------------------------------------------------
-------------------------------------------------------------------------------


Tuning: STANDARD (EADG)

 RITORNELLO (Credi, credici un pò...)
G|---------------------------------------------------------------------------|
D|-----------------------7-5-------------------------------------------------|
A|-11111111-33333333-5555---8--335-----1-1--1-1-/-1~-------------------------|
E|---------------------------------5-5--1-1----------------------------------|

 STROFA (Ho perso le parole...)
G|---------------------------------------------------------------------------|
D|----------------------------3--3-------------------------------------------|
A|-5--555-5-1--111-1-3--333-3-----33-3---------------------------------------|
E|---------------------------------------------------------------------------|

Questa è ovviamente solo la "struttura base" che va accuratamente variata ed accentata 
il profilo ritmico-melodico, rispettando le dovute macrosequenze del brano...

| /  slide up
| \  slide down
| h  hammer-on
| p  pull-off
| ~  vibrato
| +  harmonic
| x  Mute note
===============================================================================
            
Hard to play? Try these video lessons and learn fast. | Correct




comments powered by Disqus
↑ Back to top | Tablatures and chords are parodies/interpretations of the original songs. You may use it for private study, scholarship, research or language learning purposes only