» » »

Buonanotte All'italia Tabs (ver.1)

Artists:  A B C D E F G H I J K L M N O P Q R S T U V W X Y Z # 

Buonanotte All'italia Tabs (ver.1)

Ligabue
Rating:
0/5 (0 votes)

Hard to play? Try these video lessons and learn fast.
                (Intro)
Im not entirely sure this is correct. It is the intro of the song Buonanotte 
All'Italia by Ligabue.

e|---------------------------------------------------------------------------|
B|---------------------------------------------------------------------------|
G|-----------------------------------------2---0-------0---0-------0---0-----|
D|-------7---7-------7---7-------7---7\2---------------2---------------------|
A|---5-----------5-----------0-----------------------------------------------|
E|-------------------------------------------------0-----------0-------------|

e|---------------------------------------------------------------------------|
B|---------------------------------------------------------------------------|
G|---------------------------------------------------------------------------|
D|-------0-----------0-----------0-------------------------------------------|
A|-----------0-----------0-----------0---------------------------------------|
E|---3-----------3-----------3-----------------------------------------------|

 Key
 \  slide down
            
Hard to play? Try these video lessons and learn fast. | Correct




comments powered by Disqus
↑ Back to top | Tablatures and chords are parodies/interpretations of the original songs. You may use it for private study, scholarship, research or language learning purposes only