» » »

Ligabue, Bar Mario Tabs (ver.1)

Artists:  A B C D E F G H I J K L M N O P Q R S T U V W X Y Z # 

Bar Mario Tabs (ver.1)

Ligabue Tabs
Rating:
3/5 (2 votes)
Bar Mario lessons Tabs too difficult? Try these video lessons and learn fast
                BAR MARIO

Intro: (spesso ripetuta durante la canzone)

  (SOL)
E:-----------------------------------------------------------------|
B:-----------------------------------------------------------------|
G:-----------------------------------------------------------------|
D:-------5--5---------5---------3--------5--5-----------5--------3-|
A:-----------------------3-4-5-----------------------------3-4-5---|
E:-2/3-3-------2/3-3----------------3-3---------2/3-3--------------|

      Slide mooolto rapido |

  (DO)                        (SOL)
E:--------------------------------------------------------------|
B:--------------------------------------------------------------|
G:--------------------------------------------------------------|
D:------5--5-------5-------3----------5--5---------5-------3----|
A:-3-3-------2/3-3---3-4-5---------------------------3-4-5------|
E:------------------------------3-3---------2/3-3---------------|

SOL
Il buio arriva ma non e' troppo spietato
C'e' qualche stella e' come un disegno spezzato.
DO                                  SOL
Qualche lampione piccolo lume isolato freddo e perduto.
SOL
Le strade vuote non c'e' neanche il classico cane
Ha vinto ancora signora televisione
DO                                   SOL
Signora o troia agita il culo sembra con intenzione

Il commendatore gioca la carta sbagliata
il suo compagno proprio non l'ha digerita
pero' sta zitto tanto con lui non si vince mai una partita

Bistecca intanto urla per una primera
e sul suo letto si sta ballando un bolero
sua moglie brucia di febbre di vita e si sta facendo le cure

RE                                     DO
La guardia si fa un caffe' e poi se ne va
                                            SOL  DO SOL
Mario da' un colpo di straccio al banco del bar
SOL                                         DO SOL
Mario da' un colpo di straccio al banco del bar
DO7+                  DO                    SOL
Mario da' un colpo di straccio al banco del bar

Solo:

e:-7-h10--7-h10--7-h10--7-h10--8-7-5--     ----5-\8-7-5\10----5---\12-/10-----|
B:------------------------------------     -5-3-----------5-3-----------------|
G:------------------------------------(x2) -----------------------------------|
D:------------------------------------     -----------------------------------|
A:------------------------------------     -----------------------------------|
E:------------------------------------     -----------------------------------|


[Altra versione]

e:---10-10---10---10---10--8-7--------|
B:-8-------8----8----8----------10-8--|
G:------------------------------------|(x2)
D:------------------------------------|
A:------------------------------------|
E:------------------------------------|


B:-----10-------10----------10--------------|
G:-9-7------------------9-7-----------------|
D:------------------------------------------|
A:------------------------------------------|
E:------------------------------------------|

In quattro stanno sfasciando il bigliardino
fra lui e loro fanno un po' troppo casino
si alza il grosso che dice: *Muti!* e poi tira via le palline

Il cavaliere torna dalla cavalcata
saluta Mario che chiede beh, com'e' andata
lui con le dita fa un numero esagerato proprio impossible

Dice: *Dammene una e segnamela*

Mario sputa e tira fuori i conti del bar
Mario impreca e tira fuori i conti del bar
Mario sbuffa e tira fuori i conti del bar

Il gatto segna il territorio a suo modo
che sia ben chiaro a qualsiasi altro felino
a meno che sia un bestione violento ed assassino

Si sente un tuono ma e' solo rombo che passa
lo stereo a balla cento watt buoni per cassa
il grosso gli urla dove andare e poi gli fa anche la mossa

Tanto rombo domani ripassera'

Mario manda tutti a nanna e poi chiude il bar
Mario manda tutti a nanna e poi chiude il bar
Mario manda tutti a nanna e poi chiude il bar
            

comments powered by Disqus
↑ Back to top | Ligabue Tabs for Bar Mario. Lyrics for acoustic guitar and electric guitar. Tablatures and chords are parodies/interpretations of the original songs. You may use it for private study, scholarship, research or language learning purposes only