» » »

Out Of Breath Tabs (ver.1)

Artists:  A B C D E F G H I J K L M N O P Q R S T U V W X Y Z # 

Out Of Breath Tabs (ver.1)

Lifehouse
Rating:
0/5 (0 votes)

Hard to play? Try these video lessons and learn fast.
                Intro 2X:
---------------------------------------------------------
---------------------------------------------------------
---------------------------------------------------------
---4--4--4--4--4--4--5--5--7--7--7--7--7--7--5--4--------
---5--5--5--5--5--5--5--5--5--5--5--5--5--5--5--5--------
---------------------------------------------------------

---------------------------------------------------------
---------------------------------------------------------
---------------------------------------------------------
---5--5--5--5--5--5--5--4--5--4--4----4--4---------------
---5--5--5--5--5--5--5--5--5--5--5----5--5---------------
---------------------------------------------------------

Verse 1 (play intro):

Chorus:

G
D
Bm	 A	Em


Intro 1X

Verse 2 (play intro)



Chorus:

G
D
Bm	 A	Em
G
D
Bm	 A	Em  


Bridge:

Bm
Em
Bm	Em
G
Bm
Em	G
  
Play Verse 1 again (with intro riff)

Chorus

Outro: Play intro twice
            
Hard to play? Try these video lessons and learn fast. | Correct




comments powered by Disqus
↑ Back to top | Tablatures and chords are parodies/interpretations of the original songs. You may use it for private study, scholarship, research or language learning purposes only