» » »

Le Vibrazioni, Sono Più Sereno Bass tabs (ver.2)

Artists:  A B C D E F G H I J K L M N O P Q R S T U V W X Y Z # 

Sono Più Sereno Bass tabs (ver.2)

Le Vibrazioni Tabs
 Rating:
4/5 (4 votes)
Sono Più Sereno lessons Tabs too difficult? Try these video lessons and learn fast
1
                SONO PIU’ SERENO-Le vibrazioni
Bass tabs

Intro:
G--5-5-5-2-2-2-0-0-0-------------------------5-5-6-6-6-5-5-8-8-8-6-6-6-5-5--|
D-------------------------1-1-1-2-2-2-4-4-4---------------------------------|
A---------------------------------------------------------------------------|                X2
E---------------------------------------------------------------------------|

Strofa:
G--5-5-5-2-2-2-0-0-0-------------------------5-5-6-6-6-5-5-8-8-8-6-6-6-5-5-5-5-5-2-2-2--|
D-------------------------1-1-1-2-2-2-4-4-4---------------------------------------------|
A---------------------------------------------------------------------------------------|
E---------------------------------------------------------------------------------------|

-0-0------------------------5-5-6-6-6-2-2-2-0-0-0--------5-5-5-6-6-6-2-2-2-0-0-0------------------------|
------1-1-1-2-2-2-4-4-4-----------------------------4-4-4-------------------------------4-4-------------|
---------------------------------------------------------------------------------------------------2-3--|
--------------------------------------------------------------------------------------------------------|

-----------------------------------|
-----------------1-2-1-2-1-2-------|
--2-3-2-3-2-3----------------------|
-----------------------------------|

Ritornello:
G------------------------------------------------------------------------------------|
D-------0-0---------------------0-0--------0-0--------------------------0-0-2-2-2-2--|
A------------3-3-2-2-0-0-3-3------------------3-3-2-2-0-0-3-3------------------------|
E--3-3--------------------------------3-3-----------------------------3-3------------|

Intro;

Strofa;

Ritornello;

Bridge:
G-----------------------------               -----------------------------|
D--2-2-----------------------               -0-3-6-5---0-3-6-5------------|
A----------3-3-3-2-2-2-2--               ------------2-----------2--------|
E------0-0-------------------      X4    ---------------------------------|

Ritornello;

Ritornello;

Strumentale:
G----------------------------|
D---------0------------------|
A-----2-3--3-2-0----0--------|
E-3-3--------------3---------|    X2

Ritornello


Saluti,VibraVale...
            
Submit corrections

comments powered by Disqus
↑ Back to top | Le Vibrazioni Bass for Sono Più Sereno. Lyrics for acoustic guitar and electric guitar. 1 Tablatures and chords are parodies/interpretations of the original songs. You may use it for private study, scholarship, research or language learning purposes only