» » »

Not A Day Goes By Tabs (ver.1)

Artists:  A B C D E F G H I J K L M N O P Q R S T U V W X Y Z # 

Not A Day Goes By Tabs (ver.1)

Leatherface
Rating:
0/5 (0 votes)

Hard to play? Try these video lessons and learn fast.
                
CENTRAL RIFF
E|-----------------------------------------------------------------|
B|-------------------------------------------------------------5---|
G|------5------4/5------5-------4/5------5------4/5-----5------5---|
D|-------------------------------------------------------------5---|
A|-3-3------------------------------3-3----------------------------|
E|--------3-3------5-5-----0-0-------------3-3------5-5----0-0-----|


VERSE/CHORUS CHORDS (you figure out the rythm)
E|----------------------------------------------------------------|
B|----------------------------------------------------------------|
G|-5--------5--5--------------------------------------------------|
D|-5--5--7--3--5--5--7--2-----------------------------------------|
A|-3--5--7-----3--5--7--2-----------------------------------------|
E|----3--5--------3--5--0-----------------------------------------|


MIDDLE PART ("not a damn daayyyyyyyyyyyyy")
E|-----------------------------------------------------------------|
B|--1-----------------------------------5--x-x-5-------------------|
G|--0-----------------------------------5--x-x-5--(over and over)--|
D|--2--(over and over then...)----------5--x-x-5-------------------|
A|--3-----------------------------------x------x-------------------|
E|-----------------------------------------------------------------|


AFTER THAT PART A GUITAR DOES THIS ("a time when...")
E|----------------------------------------------------------------|
B|-------3-----5-------------3h-----------------------------------|
G|---4-----4-----4-----4/5/4----4---------------------------------|
D|-----------------3-3-----------(played twice)-------------------|
A|-3---------------3-3--------------------------------------------|
E|-----3-----5-----1-1--------------------------------------------|
            
Hard to play? Try these video lessons and learn fast. | Correct




comments powered by Disqus
↑ Back to top | Tablatures and chords are parodies/interpretations of the original songs. You may use it for private study, scholarship, research or language learning purposes only