» » »

Lawrence Arms, Raw And Searing Flesh Bass tabs (ver.1)

Artists:  A B C D E F G H I J K L M N O P Q R S T U V W X Y Z # 

Raw And Searing Flesh Bass tabs (ver.1)

Lawrence Arms Tabs
Rating:
0/5 (0 votes)
Hard to play? Try these video lessons and learn fast.
                The Raw & Searing Flesh by The Lawrence Arms
:
# I never want to see you... #  *=play x12  #=play x5-6
G------------------------------------------------------|
D---------4---4--------------------4---4---------------|
A---7--5----5---5---3-2-0----7--5----5---5---3---------|
E-----------------------------------------------3--2---|
: 
G-------------------------------------------------|
D----*----777----------------*---*-----*----------|
A---7---5------3--2--000----7---5---0-3----#--#---|
E-----------------------3-----------------3--2----|
:
# bridge # 
G---------77----------77----------77-55-4------------4--------4-----|
D------55----55----55----55----55---------7-5-7--5-7---7--5-7---7---|
A---77----------55----------77--------------------------------------|
E-------------------------------------------------------------------|
:
# I’m tending the pyres... #   *=play x11 #=play x5-6
G------------------------------------------------------------>|
D----*---*---*---#--#----*---*---*-----------5---5---5---5--->|
A---7---5---3---2--0----7---5---3----#--#---3--33--33--33---->|
E-----------------------------------3--2--------------------->|
:
G-------------------------------------------------99---------99------>|
D----------7---7---5---5---5---5---------#-----99----99---99----99--->|
A----#---55--55---3--33--33--33-----#---5----7----------7------------>|
E---3------------------------------3--------------------------------->|
:
G----------------------------|
D---------#---#--------------|
A----#---5---3---/5--3-2-0---|
E---3------------------------|
:
G----------------55-44----------44----------------------55-44------>|
D----#---5-4-----------77-55-77----77-55----#--5-4------------77--->|
A---7--------7-5---------------------------7-------7-5------------->|
E------------------------------------------------------------------>|
:
G---------44---------|
D---55-77----77-55---|
A--------------------|
E--------------------|
:
# I’m trying hard to remember... #  *=play x11-12 #=play x5-6
G------------------------------------------------------------------|
D---------4---4------------------#----------------------*----------|
A---7--5----5---5---3-2-0----*--5---5-0-5-0-5-0-5-0----3----#--#---|
E---------------------------0------------------------------3--2----|
: 
# Every Year... #
G-------------------------------------->|
D----------55--#---------#--55--/7-5--->|
A----*--33----3------*--3-------------->|
E---0---------------0------------------>|
:
# I wont be staring... #
G------------------------------------------------------|
D----#---#---#--5-----------#---#-----#--5-/7-5--7-5---|
A---7---5---3-----3-55-----7---5---0-3-----------------|
E------------------------------------------------------|
:
# outro #  *=play x11-12 #=play x5-6
G---------------------------------------------------------------->|
D-------55--------4------#---#----------55--------4------#---#--->|
A---77------7--55---5---3---3-------77------7--55---5---3---3---->|
E---------------------------------------------------------------->|
:
G----------------------------------------------------------------->|
D-------55---------4------#---5b---------55--------4------#---#--->|
A---77------7--555---5---3-----------77------7--55---5---3---3---->|
E----------------------------------------------------------------->|
:
G----------------------------------4---4------------------------->|
D-------55--------4--------5-7-5-7---7-----------55--------4----->|
A---77------7--55---5----3-------------------77------7--55---5--->|
E---------------------------------------------------------------->|
:
G-------------4-5-4----------------7-----------4--------|
D-----5-7-5-7------------------5-----------7--------5---|
A---3----------------------7-----------5----------------|
E-------------------------------------------------------|
:

This is the best bassline I have ever played, Brendan must be some kind of genius.
            

comments powered by Disqus
↑ Back to top | Lawrence Arms Bass for Raw And Searing Flesh. Lyrics for acoustic guitar and electric guitar. Tablatures and chords are parodies/interpretations of the original songs. You may use it for private study, scholarship, research or language learning purposes only