» » »

Lawrence Arms, Jumping The Shark Bass tabs (ver.1)

Artists:  A B C D E F G H I J K L M N O P Q R S T U V W X Y Z # 

Jumping The Shark Bass tabs (ver.1)

Lawrence Arms Tabs
 Rating:
4/5 (4 votes)
Jumping The Shark lessons Tabs too difficult? Try these video lessons and learn fast
                -------------------------------------------------------------------------------
			     Jumping The Shark - The Lawrence Arms
-------------------------------------------------------------------------------


Tuning: standard

Intro
G|---------------------------------------------------------------------------|
D|-----6-4-------------------------------------------------------------------|
A|-4~----------7~-----------4-5----------------------------------------------|
E|---------5~------2~---4~---------------------------------------------------|

Verse 1 (first part, once only)x2
G|-----|----------------------------------------------------------------------|
D|-----|----------------------------------------------------------------------|
A|-4-4-|-4-4-4-4--------------------------------------------------------------|
E|-----|---------5-5-5-5-2-2-2-2-4-4-4-4--------------------------------------|

Pre-Chorus (I'm not going back there again...)
G|---------------------------------------------------------------------------|
D|---------------------------------------------------------------------------|
A|-4~-2~-0~------------------------------------------------------------------|
E|---------------------------------------------------------------------------|

Chorus (Tonight, Tonight)
G|---------------------------------------------------------------------------|
D|---------------------------------------------------------------------------|
A|----------22222222-4444-2222-0000000---------------------------------------|
E|-00000000------------------------------------------------------------------|

Bridge (We've got the whole city...)
G|---------------------------------------------------------------------------|
D|---------------------------------------------------------------------------|
A|-44-22-00-------2222-------------------------------------------------------|
E|-----------0000------------------------------------------------------------|

Repeat the chorus part twice, then play this
G|---------------------------------------------------------------------------|
D|---------------------------------------------------------------------------|
A|-4444-2222-00000000--------------------------------------------------------|
E|---------------------------------------------------------------------------|

Ending
G|---------------------------------------------------------------------------|
D|---------------------------------------------------------------------------|
A|-4-4-4-4-4-2-4~------------------------------------------------------------|
E|---------------------------------------------------------------------------|

Another great song from a great band.  Its pretty straight forward.  


| /  slide up
| \  slide down
| h  hammer-on
| p  pull-off
| ~  vibrato
| +  harmonic
| x  Mute note
===============================================================================
            
Submit corrections

comments powered by Disqus
↑ Back to top | Lawrence Arms Bass for Jumping The Shark. Lyrics for acoustic guitar and electric guitar. Tablatures and chords are parodies/interpretations of the original songs. You may use it for private study, scholarship, research or language learning purposes only