» » »

Jumping The Shark Tabs (ver.1)

Artists:  A B C D E F G H I J K L M N O P Q R S T U V W X Y Z # 

Jumping The Shark Tabs (ver.1)

Lawrence Arms
Rating:
5/5 (1 vote)

Hard to play? Try these video lessons and learn fast.
                The Lawrence Arms - Jumping the Shark


E|-4----------4-4---7-9-----4--|-4--------4-|
B|-5---------5--5---5-------4--|-5-5-5----4-|
G|-6--1-4-6-6---6-6-6------55--|-6-6-2---55-|
D|-6--1---------6-7------6-----|-6-7-x--6---|
A|-4------------4-7------------|-4-7-4------|
E|----------------5-----4------|---5-2-4----|

       2x
E|-44-|-44444-55555-22222-44444-|--------|
B|-55-|-55555-55555-22222-44444-|-5------|
G|-66-|-66666-66666-22222-55555-|-6-4-2--|
D|-66-|-66666-77777-44444-66666-|-6-4-2--|
A|-44-|-44444-77777-44444-66666-|-4-2-0--|
E|----|-------55555-22222-44444-|--------|

4x
E|-00000000--------444------------|
B|-00000000--------555------------|
G|-111111114444444466644422222222-|
D|-222222224444444466644422222222-|
A|-222222222222222244422200000000-|
E|-00000000-----------------------|

E|-------------000---------------000-----------------000---------------|
B|-------------000---------------000-----------------000---------------|
G|-66\-44\-22\-111-444-66\-44\-2-111-444-66\-44\-22\-111-444-66\-44\-2-|
D|-66\-44\-22\-222-444-66\-44\-2-222-444-66\-44\-22\-222-444-66\-44\-2-|
A|-44\-22\-00--222-222-44\-22\-0-222-222-44\-22\-00--222-222-44\-22\-0-|
E|-------------000---------------000-----------------000---------------|

2x
E|-00000000--------444------------|
B|-00000000--------555------------|
G|-111111114444444466644422222222-|
D|-222222224444444466644422222222-|
A|-222222222222222244422200000000-|
E|-00000000-----------------------|

E|-----------------------------|
B|-----------------------------|
G|-66644422222222--6666-6\4/6\-|
D|-66644422222222--6666-6\4/6\-|
A|-44422200000000--4444-4\2/4\-|
E|-----------------------------|
            
Hard to play? Try these video lessons and learn fast. | Correct




comments powered by Disqus
↑ Back to top | Tablatures and chords are parodies/interpretations of the original songs. You may use it for private study, scholarship, research or language learning purposes only