» » »

Lawrence Arms, Alert The Audience! Bass tabs (ver.1)

Artists:  A B C D E F G H I J K L M N O P Q R S T U V W X Y Z # 

Alert The Audience! Bass tabs (ver.1)

Lawrence Arms Tabs
Rating:
0/5 (0 votes)
Alert The Audience! lessons Tabs too difficult? Try these video lessons and learn fast
                -------------------------------------------------------------------------------
			 Alert The Audience! - The Lawrence Arms
-------------------------------------------------------------------------------


Tuning: Standard

Intro/Break Riff
G|---------------------------------------------------------------------------|
D|---------------------------------------------------------------------------|
A|-33------------------------------------------------------------------------|
E|----55--33--555-1-1--------------------------------------------------------|

Verse (Passive Aggressive...)
G|---------------------------------------------------------------------------|
D|---------------------------------------------------------------------------|
A|-33333333------------------------------------------------------------------|
E|----------55555555-33333333-11111111---------------------------------------|

Bridge
G|---------------------------------------------------------------------------|
D|---------------------------------------------------------------------------|
A|-3333333333333333---------------------------33333333-----------------------|
E|------------------3333333333333333-55555555----------1111111111111111------|

Outro pt 1
G|---------------------------------------------------------------------------|
D|---------------------------------------------------------------------------|
A|-33333333------------------------------------------------------------------|
E|----------333333333-55555555-11111111--------------------------------------|

Outro pt 2
G|---------------------------------------------------------------------------|
D|----55---------------------------------------------------------------------|
A|-33----------33------------------------------------------------------------|
E|-------1111-----11111111---------------------------------------------------|

The order is rather easy to figure out.  That should be right.  The second outro is a 
tricky, but its right.  Don't forget to rate.


| /  slide up
| \  slide down
| h  hammer-on
| p  pull-off
| ~  vibrato
| +  harmonic
| x  Mute note
===============================================================================
            

comments powered by Disqus
↑ Back to top | Lawrence Arms Bass for Alert The Audience!. Lyrics for acoustic guitar and electric guitar. Tablatures and chords are parodies/interpretations of the original songs. You may use it for private study, scholarship, research or language learning purposes only