>
 >
Alert The Audience!

Alert The Audience! Guitar Tabs

Lawrence Arms - Alert The Audience! chords, tabs, tablatures, lyrics

Guitar lessons | Add/correct | Request | Top 50 tabs Artists:  A B C D E F G H I J K L M N O P Q R S T U V W X Y Z 0-9

Alert The Audience! Guitar Tabs – Lawrence Arms

CD, Sheet music, Poster

Do you like Alert The Audience!? Share with your friends now
Bass TabsTabs
----------------------------------------------------------------------------
                 alert the audience by lawrence arms
----------------------------------------------------------------------------

Tuning:standard.

Bass intro than: part 1:
e|--------------------------------------------------------------------------|
B|--------------------------------------------------------------------------|
G|------5---55-22-----------55-22-------------------------------------------|
D|--5/7---7-55-22-55-77-333-55-22-55-77-333---------------------------------|
A|----------33-00-55-77-333-33-00-55-77-333---------------------------------|
E|----------------33-55-111-------33-55-111---------------------------------|

part 2: 
e|--------------------------------------------------------------------------|
B|--------------------------------------------------------------------------|
G|--55555555-22222222--------------------55-22----------55-22---------------|
D|--55555555-22222222-55555555-33333333--55-22-55-77-33-55-22-55-77-33------|
A|--33333333-00000000-55555555-33333333--33-00-55-77-33-33-00-55-77-33------|
E|--------------------33333333-11111111--------33-55-11-------33-55-11------|
PM  ******** ******** ******** ********

part 3:
e|--------------------------------------------------------------------------|
B|--------------------------------------------------------------------------|
G|--55555555-22222222--------------------55-22----------55-22---------------|
D|--55555555-22222222-55555555-33333333--55-22-55-77-33-55-22-55------------|
A|--33333333-00000000-55555555-33333333--33-00-55-77-33-33-00-55------------|
E|--------------------33333333-11111111--------33-55-11-------33------------|
PM  ******** ******** ******** ********

Part 4:
e|--------------------------------------------------------------------------|
B|-----5-8h10-8---------88----88----88----88-------------------------------8|
G|---5----------10-9-99-99-99-99-99-99-99-99-9h10p9h10p9-9h10p9--5-7-9-9-10-|
D|-7-----------------77-77-77-77-77-77-77-77--------------------------------|
A|--------------------------------------------------------------------------|
E|--------------------------------------------------------------------------|
PM		     **    **    **    **    

e|--------------------------------------------------------------------------|
B|--------------------------------------------------------------------------|
G|10-9-10-9-7--9-9-12p9--9-9-10p9-9-----------------------------------------|
D|----------------------------------10--------------------------------------|
A|--------------------------------------------------------------------------|
E|--------------------------------------------------------------------------|

Part 5:
e|--------------------------------------------------------------------------|
B|--------------------------------------------------------------------------|
G|--55555555-22222222-------------------------------------------------------|
D|--55555555-22222222-55555555-33333333--5--5--5--5---5---5--5--5--5---5----|
A|--33333333-00000000-55555555-33333333-3--3--3--3---3---3--3--3--3---3-----|
E|--------------------33333333-11111111-------------------------------------|
PM  ******** ******** ******** ********

Part 6:
e|--------------------------------------------------------------------------|
B|--------------------------------------------------------------------------|
G|--------------------------------------------------------------------------|
D|--5--5--5--5---5---5--5--5------------------------------------------------|
A|-3--3--3--3---3---3--3--3-------------------------------------------------|
E|--------------------------------------------------------------------------|

Part 7:
e|--------------------------------------------------------------------------|
B|--------------------------------------------------------------------------|
G|--55-22-------------------------------------------------------------------|
D|--55-22-55-77-33----------------------------------------------------------|
A|--33-00-55-77-33----------------------------------------------------------|
E|--------33-55-11----------------------------------------------------------|

Part 8:
e|--------------------------------------------------------------------------|
B|--------------------------------------------------------------------------|
G|--55555555----------------------------------------------------------------|
D|--55555555-55555555-77777777-33333333-------------------------------------|
A|--33333333-55555555-77777777-33333333-------------------------------------|
E|-----------33333333-55555555-11111111-------------------------------------|

Part 9:
e|--------------------------------------------------------------------------|
B|--------------------------------------------------------------------------|
G|--55-22----------55-------------------------------------------------------|
D|--55-22-555-333--55-3-33333333--------------------------------------------|
A|--33-00-555-333--33-3-33333333--------------------------------------------|
E|--------333-111-----1-11111111--------------------------------------------|
PM		        ********

Song structure:
Part 1	x1
Part 2	x3
Part 3	x1
Part 4  x1
Part 5	x2
Part 6	x1 			  e|----|
Part 7	x1			  B|----|
Part 8	x2	      end song on G|--5-|
Part 9	x1			  D|--5-|
Part 7	x2			  A|--3-|
				  E|----|
| /  slide up 			  
| \  slide down
| h  hammer-on
| p  pull-off
| ~  vibrato
| +  harmonic
| x  Mute note
| PM palm muting
=============================================================================





Comments


Popular Lawrence Arms tabs & chords
3am Qvc Shopping Hangover Bass Tabs
Drunk Motuh Kitchen Smile Bass Tabs
Jumping The Shark Bass Tabs
Porno & Snuff Films Bass Tabs
The Disaster March Bass Tabs
Brick Wall Views Chords
Chapter 13: The Hero Appears Chords
Demons Chords
The Ramblin Boys Of Pleasure Chords
Recovering The Opposable Thumb Tabs


Song lyrics



↑ Back to top | Tablatures and chords are parodies/interpretations of the original songs. You may use it for private study, scholarship, research or language learning purposes only
© 2014 AZChords.com Contact us | Privacy policy | DMCA | Add/correct tabs | Request tabs | Top 50 tabs