>
 >
Spelunking

Spelunking Guitar Tabs

Laura Veirs - Spelunking chords, tabs, tablatures, lyrics

Guitar lessons | Add/correct | Request | Top 50 tabs Artists:  A B C D E F G H I J K L M N O P Q R S T U V W X Y Z 0-9

Spelunking Guitar Tabs – Laura Veirs

CD, Sheet music, Poster

Do you like Spelunking? Share with your friends now
Bass TabsChordsTabsUkulele
Spelunking -- Laura Veirs
CAPO: 7th fret

Intro:
 G                    Am                  E
---33---33---3---------h00---00---00---00---00---00---00---00-----|
---00---00---0---0-----h11---11---11---11---00---00---00---00-----|
---00---00---0------0--h22---22---22---22---11---11---11---11-----|
---0--0------0-0-------h2--2------2--2------2--2------2--2--------|
---2---------2----2---0---------0-----------2---------2-----------|
-3---------3------------------------------0---------0-------------|
(add extra measure of E pattern before starting verse)


    Em                                  G
The tiny midnight caravan  Made its way across the black hills
     Am                           C
As I watched from a distance  The slow-going glow
         Am                       D
Their wandering you know  Made me pine
          G                  C
For the lamplight  Where you lie
           E                   E
Where you lie

If I took you darling  To the caverns of my heart              Em, G
Would you light the lamp dear? Would you light the lamp dear?  Am, C
And see fish without eyes  Bats with their heads               Am, D
Hanging down towards the ground  Would you still come around?  G, C
Come around?                                                   E
                                                             (to solo)

(Solo over verse chords starts at 1:34; also Capo 7)
-3--2---------3--2-----------3--2------------------------------------|
-------5-3------------3------------5----------3---3--------1---------|
-------------------------------------4\2--2/4----4---4\2-0-0---------|
-----------------------------------------------------------2--2/9----|
-----------------------------------------------------------3---------|
---------------------------------------------------------------------|


I believe in you  In your honesty and your eyes                Em, G
Even when Iím sloshing  In the muck of my demise               Am, C
A large part of me  Is always and forever tied                 Am, D
To the lamplight  Of your eyes                                 G, C
Of your eyes                                                   E





Comments


Popular Laura Veirs tabs & chords
Ether Sings Bass Tabs
Saltbreakers Bass Tabs
Life Is Good Blues Chords
Wide-eyed Legless Chords
Black Eyed Susan Tabs
I Can See Your Tracks 1 Tabs
Salvage A Smile Tabs
Black Butterfly Ukulele
Dont Lose Yourself Ukulele
I Can See Your Tracks Ukulele


Song lyrics



↑ Back to top | Tablatures and chords are parodies/interpretations of the original songs. You may use it for private study, scholarship, research or language learning purposes only
© 2014 AZChords.com Contact us | Privacy policy | DMCA | Add/correct tabs | Request tabs | Top 50 tabs