» » »

Spelunking Bass tabs (ver.1)

Artists:  A B C D E F G H I J K L M N O P Q R S T U V W X Y Z # 

Spelunking Bass tabs (ver.1)

Laura Veirs
Rating:
0/5 (0 votes)

Hard to play? Try these video lessons and learn fast.
                Artist - Laura Veirs
Song - Spelunking
Album - Year of Meteors
Track - 9
Bassist - Karl Blau

No bass until 1:21 then in:

G------------------------------|
D------------------------------|
A---------10~~~~~--------------|
E-10~~~~~---------7~~~~~~------|

Solo
G---------------------------------|
D---------------------------------|
A-------------------------10~~~~--|
E-7~~~~~~-10~~~~~-12~~~~~---------|

G---------------------------------|
D---------------------------------|
A---------12~~~~~---------10~~~~~-|
E-12~~~~~---------10~~~~~---------|

G---------------------------------|
D---------------------------------|
A---------------------------------|
E-7~~~~~~-------------------------|

Bass rests again until 2:42
G---------------------------|
D---------------------------|
A---------10~~~~~-----------|
E-10~~~~~---------7~~~~~~---|

That's it! Really easy song!
            
Hard to play? Try these video lessons and learn fast. | Correct




comments powered by Disqus
↑ Back to top | Tablatures and chords are parodies/interpretations of the original songs. You may use it for private study, scholarship, research or language learning purposes only