» » »

Laura Veirs, I Can See Your Tracks Tabs (ver.1)

Artists:  A B C D E F G H I J K L M N O P Q R S T U V W X Y Z # 

I Can See Your Tracks Tabs (ver.1)

Laura Veirs Tabs
 Rating:
4/5 (6 votes)
I Can See Your Tracks lessons Tabs too difficult? Try these video lessons and learn fast
1
                ----------------------------------------------------------------------------

This is just an addition to the previous tab with a few more details added in. Iv'e 
marked the beat on the e string just to make it easier to tab and to play

Tuning: DADF#Be with capo on the 3rd fret



e|---/---/---/---/---/---/---/---/--|/---/---/---/---/---/---/---/---------|
B|----------------------------------|--------------------------------------|
G|-----------------0----------------|--------------0-----------------------|
D|-----0---0---0-------0---0---0-0--|--0---0---0-------0---0---0-0---------|
A|-------0---2---0-------0---2---0--|----0---4---0-------0---4---0---------|
E|---0-------0-----0-----0---0------|5-------5-----5-----5---5-------------|
  X4 for intro, then X4 in the verse.                X2

e|---/---/---/---/---/---/---/---/-----------------------------------------|
B|-------------------------------------------------------------------------|
G|-----------------0-------------------------------------------------------|
D|-----0---0---0-------0---0---0-0-----------------------------------------|
A|-------0---2---0-------0---2---0-----------------------------------------|
E|---0-------0-----0-----0---0---------------------------------------------|
                X2

e|---/---/---/---/---/---/---/---/---|/---/---/---/---/---/---/---/----------|
B|-----------------0-----------------|--------------0------------------------|
G|-----0---0---0-------0---0---0-0---|--0---0---0-------0---0---0-0-0--------|
D|-------0---2---0-------0---2---0---|----0---2---0-------0---2-0-0-0--------|
A|---2-------2-----2-----2---2-------|2-------2-----2-----2---2-2-2-2--------|
E|-----------------------------------|--------------------------2-2-2--------|


e|---/---/---/---/---/---/---/---/---|/---/---/---/---/---/---/---/--------|
B|-----------------------------------|-------------------------------------|
G|---0---0-----0-0-0---0-0---0-0-0-0-|--------------0----------------------|
D|---0---0-----0-0-0---0-0---0-0-0-0-|--0---0---0-------0---0---0-0--------|
A|---2---2-----2-2-5---5-5---5-5-5-5-|----0---2---0-------0---2---0--------|
E|---2---2-----2-2-5---5-5---5-5-5-5-|0-------0-----0-----0---0------------|
                                                    X2
Same pattern for the next verse and the bit without vocals.
In the last verse repeat the same thing but the end is altered:

e|---/---/---/---/---/---/---/---/---|/---/---/---/---/---/---/---/--------|
B|-----------------------------------|-------------------------------------|
G|---0---0-----0-0-0---0-0---0-0-0-0-|--------------0-----------0-0-0------|
D|---0---0-----0-0-0---0-0---0-0-0-0-|--0---0---0-------0---0---0-0-0------|
A|---2---2-----2-2-5---5-5---5-5-5-5-|----0---2---0-------0---2-2-2-2------|
E|---2---2-----2-2-5---5-5---5-5-5-5-|0-------0-----0-----0---0-2-2-2------|


e|---/---/---/---/---/---/---/---/---|/---/---/---/---/---/---/---/--------|
B|-----------------------------------|-------------------------------------|
G|---0---0-----0-0-0---0-0---0-0-0-0-|--------------0----------------------|
D|---0---0-----0-0-0---0-0---0-0-0-0-|--0---0---0-------0---0---0-0--------|
A|---2---2-----2-2-5---5-5---5-5-5-5-|----0---2---0-------0---2---0--------|
E|---2---2-----2-2-5---5-5---5-5-5-5-|0-------0-----0-----0---0------------|
                                                   X3

e|---/---/---/---/---2-----------------------------------------------------|
B|-------------------3-----------------------------------------------------|
G|-------------------0-----------------------------------------------------|
D|-----0---0---0-----0-----------------------------------------------------|
A|-------0---2---0---0-----------------------------------------------------|
E|---0-------0-------0-----------------------------------------------------|


************************************

| /   slide up
| \   slide down
| h   hammer-on
| p   pull-off
| ~   vibrato
| +   harmonic
| x   Mute note
| b   Bend
| pb  Pre-bend
| br  Bend release
| pbr Pre-bend release
| brb Bend release bend

************************************
            
Submit corrections

comments powered by Disqus
↑ Back to top | Laura Veirs Tabs for I Can See Your Tracks. Lyrics for acoustic guitar and electric guitar. 1 Tablatures and chords are parodies/interpretations of the original songs. You may use it for private study, scholarship, research or language learning purposes only