» » »

Selon Bass tabs (ver.2)

Artists:  A B C D E F G H I J K L M N O P Q R S T U V W X Y Z # 

Selon Bass tabs (ver.2)

La Ruda Salska
Rating:
0/5 (0 votes)

Hard to play? Try these video lessons and learn fast.
                La Ruda Salska
Selon
Bass
By Herisong


Riff 1
G:---3-3-0-0------
D:-----------1-3--
A:-1------------1-
E:----------------

Riff 2
G:-----------333-------------------
D:----333-1-1--------------101010--
A:-1-1--------------6-6-8-8------6-
E:---------------4-4-4-------------

Riff 3
G:---3-0--------------------------
D:------1-1-1-3-3---------101010--
A:-1---------------6-6-8-8------6-
E:----------------4-4-------------

Riff 4
G:-------------2-
D:------2-0-044--
A:-0-033---------
E:---------------

Riff 5
G:-----3-3-0-0-----
D:-------------123-
A:-1-1-------------
E:-----------------

Riff 6
G:-----2-2---------
D:---------4-0-012-
A:-0-0-------------
E:-----------------


Riff 1 X 6
Riff 2 X 6
Riff 3 X 2
Riff 2 X 2
Riff 4 X 8
Riff 2 X 2
Riff 4 X 4
Riff 5 X 8
Riff 2 X 6
Riff 3 X 2
Riff 2 X 2
Riff 4 X 6
Riff 6 X 6
            
Hard to play? Try these video lessons and learn fast. | Correct




comments powered by Disqus
↑ Back to top | Tablatures and chords are parodies/interpretations of the original songs. You may use it for private study, scholarship, research or language learning purposes only