» » »

Pineapple Face Tabs (ver.2)

Artists:  A B C D E F G H I J K L M N O P Q R S T U V W X Y Z # 

Pineapple Face Tabs (ver.2)

Lard
Rating:
0/5 (0 votes)

Hard to play? Try these video lessons and learn fast.
                Pineapple Face          by Lard
                        from the album "The Last Temptation of Reid"
                        words and music by Al Jourgensen, Paul Barker,
                                Jeff Ward and Jello Biafra
INTRO
E |------------------------------------------------------------|
B |------------------------------------------------------------|
G |------------------------------------------------------------|
D |-----------5---8-7------------------------------------------|
A |--7-7-7-7--3---6-5---7-7-7-7--5-----------------------------|
E |--5-5-5-5------------5-5-5-5--3-----------------------------|
 
RIFF 1
E |------------------------------------------------------------|
B |------------------------------------------------------------|
G |------------------------------------------------------------|
D |-----------5---8-7---------------4/5------------------------|
A |--7---7----3---6-5---7---7---5---2/3------------------------|
E |--5---5--------------5---5---3------------------------------|
 
RIFF 2           PM....
E |------------------------------------------------------------|
B |------------------------------------------------------------|
G |------------------------------------------------------------|
D |------------------------------------------------------------|
A |---7---5---7---5-5-5----------------------------------------|
E |---5---3---5---3-3-3----------------------------------------|
 
RIFF 3          
E |------------------------------------------------------------|
B |------------------------------------------------------------|
G |------------------------------------------------------------|
D |---7---5---7---5-5-5----------------------------------------|
A |---5---3---5---3-3-3----------------------------------------|
E |------------------------------------------------------------|
 
CHORUS
     let ring                       let ring
E |------------------------------------------------------------|
B |------------------------------------------------------------|
G |---5-----------------9-9-9-------2------------7---9----5----|
D |---5-----------------9-9-9-------2------------7---9----5----|
A |---3-----------------7-7-7-------0------------5---7----3----|
E |------------------------------------------------------------|
 
E |------------------------------------------------------------|
B |------------------------------------------------------------|
G |---5-----------------9-9------2-----------------------------|
D |---5-----------------9-9------2-----------------------------|
A |---3-----------------7-7------0-----------------------------|
E |------------------------------------------------------------|
 
RIFF 4
E |------------------------------------------------------------|
B |------------------------------------------------------------|
G |---7-7----5-5---5-------------------------------------------|
D |---7-7----5-5---5-------------------------------------------|
A |---5-5----3-3-0-3-0-----------------------------------------|
E |------------------------------------------------------------|
 
ENDING
E |------------------------------------------------------------|
B |------------------------------------------------------------|
G |------------------------------------------------------------|
D |------------5--8-7---------------------5-2------------------|
A |---7-7-7-7--3--6-5---------7-7-7-7--5--3-0------------------|
E |---5-5-5-5-----------------5-5-5-5--3-----------------------|
 
-Songflow-
Intro 2x   
Riff 1 4x  -\
Riff 2 4x   |
Riff 1 2x   |
Riff 2 4x   |- repeat all of this
Riff 3 8x   |
Riff 1 4x   |
Chorus     -/
 
Riff 1 8x
Riff 4 16x
Riff 1 4x
Riff 2 4x
Riff 1 2x
Riff 2 4x
Riff 1 10x
Chorus
 
Riff 1 20x
Ending
            
Hard to play? Try these video lessons and learn fast. | Correct




comments powered by Disqus
↑ Back to top | Tablatures and chords are parodies/interpretations of the original songs. You may use it for private study, scholarship, research or language learning purposes only