» » »

Lard, Drug Raid At 4am Tabs (ver.2)

Artists:  A B C D E F G H I J K L M N O P Q R S T U V W X Y Z # 

Drug Raid At 4am Tabs (ver.2)

Lard Tabs
4/5 (4 votes)
Drug Raid At 4am lessons Tabs too difficult? Try these video lessons and learn fast
                Drug Raid at 4 AM       by Lard
                        from the album "The Last Temptation of Reid"
                        words and music by Al Jourgensen, Paul Barker,
                                Jeff Ward and Jello Biafra
E |--12---------12-------------------------------|
B |--12-------------12---------------------------|
G |.-13-----------------------7------7-7-7------.|
D |.-14-----------------------8------8-8-8------.|
A |--14-----------------------8------8-8-8-------|
E |--12-----------------------6------6-6-6-------|
E |----------------------------------------------------------------|
B |----------------------------------------------------------------|
G |.-9-----------------------------9------------------------------.|
D |.-9-----------------------5-7---9----------------------8--7--5-.|
A |--7-----------------------5-7---7----------------------8--7--5--|
E |--0--0-0-0-0-0-0-0-0-0-0--------0--0-0-0-0-0-0-0-0-0-0----------|
During "No....please..."
E |----------------|
B |----------------|
G |.--------------.|
D |.-----8-7-5----.|
A |------8-7-5-----|
E |--0-------------|
    Drug raid at  4  AM
E |-----------------------------------------------------------------------|
B |-----------------------------------------------------------------------|
G |.-7-7-------9---------------------------------------------------------.|
D |.-7-7-------9---7--5---2---8--7--5---2-------------------8--7-5--2----.|
A |--5-5-------7---7--5---2---8--7--5---2-------------------8--7-5--2-----|
E |----------------5--3---0-------------0-0-0-0-0-0-0-0-0-0---------0-----|
E |--12---------12------------------|
B |--12-------------12--------------|
G |.-13-----------------------7----.|
D |.-14-----------------------8----.|
A |--14-----------------------8-----|
E |--12-----------------------6-----|
All open E notes are palm muted.
Submit corrections

comments powered by Disqus
↑ Back to top | Lard Tabs for Drug Raid At 4am. Lyrics for acoustic guitar and electric guitar. Tablatures and chords are parodies/interpretations of the original songs. You may use it for private study, scholarship, research or language learning purposes only