» » »

Puedes Contar Conmigo Tabs (ver.2)

Artists:  A B C D E F G H I J K L M N O P Q R S T U V W X Y Z # 

Puedes Contar Conmigo Tabs (ver.2)

La Oreja De Van Gogh
Rating:
3/5 (3 votes)

Hard to play? Try these video lessons and learn fast.
                Lo mas nuevo de la Oreja, espero les guste
esta en los tonos originales de la grabacion


e--------------------------------|
B--------------------------------|
G------6-----6-----6-----6-----6-|
D--4-4---4-4---4-4---4-4---4-4---|
A--------------------------------|
E--------------------------------|
  
  Un cafe...
e--------------------------------|
B--------------------------------|
G-/11-10-8-6-------6-----6-----6-|
D--------------4-4---4-4---4-4---|
A--------------------------------|
E--------------------------------|

             ganas de ...
e--------------------------------|
B--------------------------------|
G--------------------------------|
D-----6-----6/11-10-8-6------6---|
A-4-4---4-4--------------6-6-----|
E--------------------------------|

                   mi mundo...
e--------------------------------|
B--------------------------------|
G-----6-----6-----6--------------|
D-6-6---6-6---6-6---6-8-6-4------|
A---------------------------6-6--|
E--------------------------------|

           presiente..
e--------------------------------|
B--------------------------------|
G--------------------------------|
D--8-----8------4----4-2---------|
A----6-6----2-2---2------4-------|
E--------------------------------|

                 no quiero...
e----------------------------|
B-11-10-8-6------------------|
G-----------4-4-6/11-10-8-6--|
D----------------------------|
A----------------------------|
E----------------------------|

                     ahora eso...
e--------------------------------|
B--------------------------------|
G-----6-----6-----6-----6-----6/-|
D-4-4---4-4---4-4---4-4---4-4----|
A--------------------------------|
E--------------------------------|

  
e--------------------------------|
B--------------------------------|
G-/11-10-8-6------6-----6-----6--|
D-------------6-6---6-6---6-6----|
A--------------------------------|
E--------------------------------|

         estoy cansada....
e--------------------------------|
B--------------------------------|
G-----6--------------------------|
D-6-6----6-8-6-4-----8------8----|
A----------------6-6---6--6------|
E--------------------------------|

  excusas...
e--------------------------------|
B--------------------------------|
G--------------------------------|
D-----4----4-2-----2------2------|
A-2-2---2------4-4---4--4---4-4--|
E--------------------------------|

(con acordes es)

F#
un cafe con sal
             C#
ganas de llorar
              D#m
mi mundo empezando a temblar
     B                     F#
presiente q se acerca el final


no quiero ganar
                 C#
ahora eso q mas da
               D#m
estoy cansada ya de inventar
 B                  C#
excusas q no saben andar

            D#m    B
y solo.. queeeeedarán
                        F#
los buenos momentos de ayer
             D#m           B
q fueron... deeeeeeee los dos
                    C#
y hoy solo quiero creer

      F#
q recordaras 
                    C#
las tardes invierno por madrid
                    D#m
las noches enteras sin dormir
                 A#
la vida pasaba y yo sentia 

              F#
q me iba a morir de amor
                      C#
al verte esperando en mi portal
                     D#m
sentado en el suelo sin pensar
                    B       C#
q puedes contar conmigo oohoooh
F#
e--------------------------------|
B--------------------------------|
G------6-----6-----6-----6-----6-|
D--4-4---4-4---4-4---4-4---4-4---|
A--------------------------------|
E--------------------------------|
  
  nunca hubo...
e--------------------------------|
B--------------------------------|
G-/11-10-8-6-------6-----6-----6-|
D--------------4-4---4-4---4-4---|
A--------------------------------|
E--------------------------------|

             solo inge ...
e--------------------------------|
B--------------------------------|
G--------------------------------|
D-----6-----6/11-10-8-6------6---|
A-4-4---4-4--------------6-6-----|
E--------------------------------|

                   pretendiendo...
e--------------------------------|
B--------------------------------|
G-----6-----6-----6--------------|
D-6-6---6-6---6-6---6-8-6-4------|
A---------------------------6-6--|
E--------------------------------|

           q el mundo...
e--------------------------------|
B--------------------------------|
G--------------------------------|
D--8-----8------4----4-2---------|
A----6-6----2-2---2------4-------|
E--------------------------------|

        cuando el sueño...
e----------------------------|
B-11-10-8-6------------------|
G-----------4-4-6/11-10-8-6--|
D----------------------------|
A----------------------------|
E----------------------------|

                     en silencio voy...
e--------------------------------|
B--------------------------------|
G-----6-----6-----6-----6-----6/-|
D-4-4---4-4---4-4---4-4---4-4----|
A--------------------------------|
E--------------------------------|

  
e--------------------------------|
B--------------------------------|
G-/11-10-8-6------6-----6-----6--|
D-------------6-6---6-6---6-6----|
A--------------------------------|
E--------------------------------|

         una vida a...
e--------------------------------|
B--------------------------------|
G-----6--------------------------|
D-6-6----6-8-6-4-----8------8----|
A----------------6-6---6--6------|
E--------------------------------|

  donde vivamos juntos los dos
e--------------------------------|
B--------------------------------|
G--------------------------------|
D-----4----4-2-----2------2------|
A-2-2---2------4-4---4--4---4-4--|
E--------------------------------|

(en acordes es)

F#
nunca hubo maldad
            C#
solo ingenuidad
                D#m
pretendiendo hacernos creer
      B                       F#
q el mundo estaba a nuestros pies


cuando el sueño venga por ti
                        C#
en silencio voy a construir
             D#m
una vida a todo color
   B                      C#
donde vivamos juntos los dos

            D#m    B
y solo.. queeeeedarán
                        F#
los buenos momentos de ayer
             D#m           B
q fueron... deeeeeeee los dos
                    C#
y hoy solo quiero creer

      F#
q recordaras 
                    C#
las tardes invierno por madrid
                    D#m
las noches enteras sin dormir
                 A#
la vida pasaba y yo sentia 

              F#
q me iba a morir de amor
                      C#
al verte esperando en mi portal
                     D#m
sentado en el suelo sin pensar
                    B   
q puedes contar conmigo
      C#             F#
para siempre y no puedo evitar

                   A#m
echarte de menos mientras das
                    D#m
la mano a mi tiempo y te vas
                   B                C#
yo siento q quiero verte, verte y pienso

      F#
q recordaras 
                    C#
las tardes invierno por madrid
                    D#m
las noches enteras sin dormir
                 A#
la vida pasaba y yo sentia 

              F#
q me iba a morir de amor
                      C#
al verte esperando en mi portal
                     D#m
sentado en el suelo sin pensar
                    A#   
q puedes contar conmigo

     D#m
q recordaras 
                       A#m
las tardes de invierno por madrid 
                    B
las noches enteras sin dormir
                  G#m
la vida se pasa y yo me muero
A#7             D#m
  me muero por ti

Espero q les guste, la parte de los solos
toquenla y escuchen donde son los cambios en la grabacion
            
Hard to play? Try these video lessons and learn fast. | Correct




comments powered by Disqus
↑ Back to top | Tablatures and chords are parodies/interpretations of the original songs. You may use it for private study, scholarship, research or language learning purposes only