» » »

Vergeltung Tabs (ver.1)

Artists:  A B C D E F G H I J K L M N O P Q R S T U V W X Y Z # 

Vergeltung Tabs (ver.1)

Landser
Rating:
0/5 (0 votes)

Hard to play? Try these video lessons and learn fast.
                Landser - Vergeltung:


Intro: Clean

e|--------------------------------------------------------------|
B|--------------------------------------------------------------|
G|-----------7------------------7------------------7------------|
D|-------9-----9---9--------9-----9---9--------9-----9---9------|
A|-----9---9-----9--------9---9-----9--------9---9-----9--------|
E|---7------------------7------------------7----------------7~--|


erste Strophe: Clean

e|---------------------------------------------------------------------------|
B|---------------------------------------------------------------------------|
G|-----------7------------------7------------------5-----------------7-------|
D|-------9-----9---9--------9-----9---9--------7-----7---7-------9-----9---9-|
A|-----9---9-----9--------9---9-----9--------7---7-----7-------9---9-----9---|
E|---7------------------7------------------5-----------------7---------------| X4


zweite Strophe: Overdrive

e|--------------------------------------------------------------------------|
B|--------------------------------------------------------------------------|
G|--------------------------------------------------------------------------|
D|9------9---9-9----12------12---12-12----7------7---7-7----9------9---9-9--|
A|9------9---9-9----12------12---12-12----7------7---7-7----9------9---9-9--|
E|7------7---7-7----10------10---10-10----5------5---5-5----7------7---7-7--| X4


Solo: Overdrive

e|--------------------------------------------------------|
B|--------------------------------------------------------|
G|---16----18--16----14------11---------------------------|
D|--------------------------------14--12--14--16--12--9---|
A|--------------------------------------------------------|
E|--------------------------------------------------------|



e|--------------------------------------|
B|--------------------------------------|
G|--------------------------------------|
D|---9---11--9--7----4----2-------------|
A|----------------------------5--4--2---|
E|--------------------------------------|



e|---------------------------------------------------------------|
B|---------------------------------------------------------------|
G|---16----18--16----14------11-------11----11----11-------------|
D|--------------------------------14-----14---14------14--12--11-|
A|---------------------------------------------------------------|
E|---------------------------------------------------------------|


e|----------------------------------------------------------------------|
B|----------------------------------------------------------------------|
G|----------------------------------------------------------------------|
D|-9-11-12--9-11-12--9-11-12-11-12-14--12--14-14-12-12-11-11-9-9-7-9----|
A|----------------------------------------------------------------------|
E|----------------------------------------------------------------------|


dritte Strophe: Overdrive

e|-------------------------------------------------------------------------|
B|-------------------------------------------------------------------------|
G|-------------------------------------------------------------------------|
D|9------9---9-9----12----12---12-12----7------7---7-7----9------9---9-9---|
A|9------9---9-9----12----12---12-12----7------7---7-7----9------9---9-9---|
E|7------7---7-7----10----10---10-10----5------5---5-5----7------7---7-7---| X4


Danach: Overdrive

e|------------------------------------------------------------------------|
B|------------------------------------------------------------------------|
G|------------------------------------------------------------------------|
D|9------9---9-9----12------12---12-12----7------7---7-7----9------9---9-9|
A|9------9---9-9----12------12---12-12----7------7---7-7----9------9---9-9|
E|7------7---7-7----10------10---10-10----5------5---5-5----7------7---7-7| X3



e|-----------------------------------------------------------------------|
B|-----------------------------------------------------------------------|
G|-----------------------------------------------------------------------|
D|---9------9---9-9------12------12---12-12------7------7---7-7------9~~-|
A|---9------9---9-9------12------12---12-12------7------7---7-7------9~~-|
E|---7------7---7-7------10------10---10-10------5------5---5-5------7~~-|



e|---------------------------------------------------|
B|---------------------------------------------------|
G|---------------------------------------------------|
D|----99999999-1212121212121212-77777777-99999999----|
A|----99999999-1212121212121212-77777777-99999999----|
E|----77777777-1010101010101010-55555555-77777777----| Play this until the end!

Hab einfach mal versucht alles rauszuhören...Beim Intro und der ersten
Strophe bin ich mir nicht ganz sicher, der Rest sollte aber eigentlich richtig sein...
Viel Spaß beim nachspielen =)

Gruß
Hose 88
            
Hard to play? Try these video lessons and learn fast. | Correct




comments powered by Disqus
↑ Back to top | Tablatures and chords are parodies/interpretations of the original songs. You may use it for private study, scholarship, research or language learning purposes only