» » »

Landser, Polacken Tango Tabs (ver.1)

Artists:  A B C D E F G H I J K L M N O P Q R S T U V W X Y Z # 

Polacken Tango Tabs (ver.1)

Landser Tabs
Rating:
0/5 (0 votes)
Hard to play? Try these video lessons and learn fast.
                Landser - Polacken Tango

Verzerrt/Disorted!


Verse 1:

e|--------------------------------------------------------------------------------------------|
H|--------------------------------------------------------------------------------------------|
G|-----------4--4-4-4--4--4-4-4------------------------------------------4--4-4-4--4444-4-4---|
D|-----------4--4-4-4--4--4-4-4--4--4-4-4--4--4-4-4--2--2-2-2--4--4-4-4--4--4-4-4--4444-4-4---|
A|-----------2--2-2-2--2--2-2-2--4--4-4-4--4--4-4-4--2--2-2-2--4--4-4-4--2--2-2-2--2222-2-2---|
E|-------------------------------2--2-2-2--2--2-2-2--0--0-0-0--2--2-2-2-----------------------| X2

pm--------------------------------------------------------------------------------------------|


Chorus:

e|--------------------------------------------------------------------------------------------|
H|--------------------------------------------------------------------------------------------|
G|-----------4--4-4-4--4--4-4-4------------------------------------------4--4-4-4--4444-4-4---|
D|-----------4--4-4-4--4--4-4-4--4--4-4-4--4--4-4-4--2--2-2-2--4--4-4-4--4--4-4-4--4444-4-4---|
A|-----------2--2-2-2--2--2-2-2--4--4-4-4--4--4-4-4--2--2-2-2--4--4-4-4--2--2-2-2--2222-2-2---|
E|-------------------------------2--2-2-2--2--2-2-2--0--0-0-0--2--2-2-2-----------------------|X2

pm--------------------------------------------------------------------------------------------|

Verse 2:

e|--------------------------------------------------------------------------------------------|
H|--------------------------------------------------------------------------------------------|
G|-----------4--4-4-4--4--4-4-4------------------------------------------4--4-4-4--4444-4-4---|
D|-----------4--4-4-4--4--4-4-4--4--4-4-4--4--4-4-4--2--2-2-2--4--4-4-4--4--4-4-4--4444-4-4---|
A|-----------2--2-2-2--2--2-2-2--4--4-4-4--4--4-4-4--2--2-2-2--4--4-4-4--2--2-2-2--2222-2-2---|
E|-------------------------------2--2-2-2--2--2-2-2--0--0-0-0--2--2-2-2-----------------------|X2

pm--------------------------------------------------------------------------------------------|

Chorus:

e|--------------------------------------------------------------------------------------------|
H|--------------------------------------------------------------------------------------------|
G|-----------4--4-4-4--4--4-4-4------------------------------------------4--4-4-4--4444-4-4---|
D|-----------4--4-4-4--4--4-4-4--4--4-4-4--4--4-4-4--2--2-2-2--4--4-4-4--4--4-4-4--4444-4-4---|
A|-----------2--2-2-2--2--2-2-2--4--4-4-4--4--4-4-4--2--2-2-2--4--4-4-4--2--2-2-2--2222-2-2---|
E|-------------------------------2--2-2-2--2--2-2-2--0--0-0-0--2--2-2-2-----------------------|X2

pm--------------------------------------------------------------------------------------------|

Solo:

e|--------------------------------------------------------------------------------------------|
H|--11--12--12----12-12--12--12--12-14--12--12/11----11--11--12--9-9--9---7----5-4--2--4/2\4--|
G|--------------------------------------------------------------------------------------------|
D|--------------------------------------------------------------------------------------------|
A|--------------------------------------------------------------------------------------------|
E|--------------------------------------------------------------------------------------------|

e|--------------------------------------------------------------------------------------------|
H|--4--2--11--12-12--12----12--12--14--12--12/11----11--11--12--9-9--9---7----5-4--2--4/2~~---|
G|--------------------------------------------------------------------------------------------|
D|--------------------------------------------------------------------------------------------|
A|--------------------------------------------------------------------------------------------|
E|--------------------------------------------------------------------------------------------|

Chorus:

e|--------------------------------------------------------------------------------------------|
H|--------------------------------------------------------------------------------------------|
G|-----------4--4-4-4--4--4-4-4------------------------------------------4--4-4-4--4444-4-4---|
D|-----------4--4-4-4--4--4-4-4--4--4-4-4--4--4-4-4--2--2-2-2--4--4-4-4--4--4-4-4--4444-4-4---|
A|-----------2--2-2-2--2--2-2-2--4--4-4-4--4--4-4-4--2--2-2-2--4--4-4-4--2--2-2-2--2222-2-2---|
E|-------------------------------2--2-2-2--2--2-2-2--0--0-0-0--2--2-2-2-----------------------|X2

pm--------------------------------------------------------------------------------------------|

Verse 3:

e|--------------------------------------------------------------------------------------------|
H|--------------------------------------------------------------------------------------------|
G|-----------4--4-4-4--4--4-4-4------------------------------------------4--4-4-4--4444-4-4---|
D|-----------4--4-4-4--4--4-4-4--4--4-4-4--4--4-4-4--2--2-2-2--4--4-4-4--4--4-4-4--4444-4-4---|
A|-----------2--2-2-2--2--2-2-2--4--4-4-4--4--4-4-4--2--2-2-2--4--4-4-4--2--2-2-2--2222-2-2---|
E|-------------------------------2--2-2-2--2--2-2-2--0--0-0-0--2--2-2-2-----------------------|X2

pm--------------------------------------------------------------------------------------------|

Chorus:

e|--------------------------------------------------------------------------------------------|
H|--------------------------------------------------------------------------------------------|
G|-----------4--4-4-4--4--4-4-4------------------------------------------4--4-4-4--4444-4-4---|
D|-----------4--4-4-4--4--4-4-4--4--4-4-4--4--4-4-4--2--2-2-2--4--4-4-4--4--4-4-4--4444-4-4---|
A|-----------2--2-2-2--2--2-2-2--4--4-4-4--4--4-4-4--2--2-2-2--4--4-4-4--2--2-2-2--2222-2-2---|
E|-------------------------------2--2-2-2--2--2-2-2--0--0-0-0--2--2-2-2-----------------------|X2

pm--------------------------------------------------------------------------------------------|

Drums + Voice

Chorus:


e|--------------------------------------------------------------------------------------------|
H|--------------------------------------------------------------------------------------------|
G|-----------4--4-4-4--4--4-4-4------------------------------------------4--4-4-4--4444-4-4---|
D|-----------4--4-4-4--4--4-4-4--4--4-4-4--4--4-4-4--2--2-2-2--4--4-4-4--4--4-4-4--4444-4-4---|
A|-----------2--2-2-2--2--2-2-2--4--4-4-4--4--4-4-4--2--2-2-2--4--4-4-4--2--2-2-2--2222-2-2---|
E|-------------------------------2--2-2-2--2--2-2-2--0--0-0-0--2--2-2-2-----------------------|

pm--------------------------------------------------------------------------------------------|

play this until end!

So..nächstes Landser-Lied getabbed :-P
Viel Spaß damit=)
Hose88
            

comments powered by Disqus
↑ Back to top | Landser Tabs for Polacken Tango. Lyrics for acoustic guitar and electric guitar. Tablatures and chords are parodies/interpretations of the original songs. You may use it for private study, scholarship, research or language learning purposes only