» » »

Antes Chords (ver.1)

Artists:  A B C D E F G H I J K L M N O P Q R S T U V W X Y Z # 

Antes Chords (ver.1)

La Mancha De Rolando
Rating:
5/5 (1 vote)

Tabs too difficult? Try these video lessons and learn fast.
                Artista: La Mancha de Rolando
Tema: Antes


intro: (G5-D5-E5-C5)X 3  G5-D5 X2

verso1...tocado en forma de arpegio

G    D         Em   C G    D       Em  C
Antes cuando salia solo rompia mi nariz
G    D        Em    C  G      D          G  D
pobre mi corazon sufria pero yo estaba a mil
G      D       Em     C  G   D           Em C
siempre hipoteque mi vida para poder seguir
G       D        Em    C G      D        G D
riesgos, amor y fantasia las claves para mi

estribillo1

G5            D5  E5          C5         G5        D5
siempre te busque y siempre tuve que llorar para ver
E5         C5          G5        D5  E5          C5
que esta vida valia siempre desperte de mis pesadillas
G5          D5  E5              C5
y nunca tendre la paz que necesito

Verso2.. tocar igual que el verso1

Antes dormia todo el dia para reconstruir
todas mis neuronas perdidas que se quisieron ir
pronto cai que estaba herido ya no queria reir
todos me daban por perdido cansados de existir

estribillo2... tocar igual que estribillo1

pero recorde ver a mi padre enseñando me a ver
el mundo tal cual era no podia ser que les falle
a mis amigos de ayer, a los de hoy y siempre

base: (G5-D5-E5-C5)X4

solo 1: 1-------------------------------------------|
        2------------7-8-7--------------------------|
        3--7-7-9-7--9-----9-7-7-7-9-7---------------| X2
        4------------------------------5-5-7-9-7-5-7|
        5-------------------------------------------|
        6-------------------------------------------|

A5             C5                     G5
no le dan los ojos para ver pero el pibe sigue igual
       D5
necesita estar despierto
A5                         C5
siempre vuelve ahi y aunque duela
            D5
nunca deja de aprender

G    D         Em   C G    D       Em  C
Antes cuando salia solo rompia mi nariz
G    D        Em    C  G      D          G  D
pobre mi corazon sufria pero yo estaba a mil


estribillo2... tocar igual que estribillo

pero recorde.......

final:

base (G5-D5-E5-C5)X4

solo 1: 1-------------------------------------------|
        2------------7-8-7--------------------------|
        3--7-7-9-7--9-----9-7-7-7-9-7---------------| X2
        4------------------------------5-5-7-9-7-5-7|
        5-------------------------------------------|
        6-------------------------------------------|

base: (G5-D5-E5-C5)X4

solo 2: 1--15-15-15-15-15-15----|
        2--15-15-15-15-15-15----| todo en traste 15 hasta
        3-----------------------|      que termina
        4-----------------------|
        5-----------------------|
        6-----------------------|
            
Tabs too difficult? Try these video lessons and learn fast.




comments powered by Disqus
↑ Back to top | Tablatures and chords are parodies/interpretations of the original songs. You may use it for private study, scholarship, research or language learning purposes only