» » »

La Mancha De Rolando, Antes Bass tabs (ver.1)

Artists:  A B C D E F G H I J K L M N O P Q R S T U V W X Y Z # 

Antes Bass tabs (ver.1)

La Mancha De Rolando Tabs
Rating:
5/5 (1 vote)
Antes lessons Tabs too difficult? Try these video lessons and learn fast
                Artista: La Mancha de Rolando
Cancion: Antes


INTRO/VERS:

Antes cuando salía solo rompía mi nariz.....

G---------------------------- x 3 ------------ x 2-|
D-----------------2222-------     -----------------|
A-------5555------------3333-     ----55---55------|
E-3333-----------------------     -33---33---------|

ESTRIBILLO:

Siempre te busque y siempre tuve que llorar para ver....

G-----------------------| X 5
D-----------------------|
A-------5555--7777------|
E-3333-------------8888-|

No le dan los ojos para ver pero el pibe sigue igual....

G--------------------------/-------------------|
D--------------------------/-------------------|
A---------------------(5)--/--------(3)---(5)--|
E---(5)---(8)---(3)--------/---(5)-------------|


Se repite el verso pero sin bajo.
            

comments powered by Disqus
↑ Back to top | La Mancha De Rolando Bass for Antes. Lyrics for acoustic guitar and electric guitar. Tablatures and chords are parodies/interpretations of the original songs. You may use it for private study, scholarship, research or language learning purposes only