>
 >
The Corridor 2

The Corridor 2 Guitar Tabs

La Ley - The Corridor 2 chords, tabs, tablatures, lyrics

Guitar lessons | Add/correct | Request | Top 50 tabs Artists:  A B C D E F G H I J K L M N O P Q R S T U V W X Y Z 0-9

The Corridor 2 Guitar Tabs – La Ley

CD, Sheet music, Poster

Do you like The Corridor 2? Share with your friends now
ChordsTabsTabs v2
Esta y todas las canciones del Mtv Unplugged suenan mucho mejor al 
ser tocadas por 2 o mas guitarras, unas que hagan el acompaņamiento 
y otras los arpegios,punteos y solos.
|-------------------------------------------------------------------------|
  *----------------*----------------------------*
  |   ^ :full      |   h :hammer on             |
  |   / :slide     |   p :pull of               |
  |   ~ :vibrato   |  ( ):son notas opcionales  |
  *----------------*----------------------------*

  *Intro y versos:
(Este Riff se repite y se puede hacer
 en varias posiciones, aqui hay dos)

      Bb        C         Dm                Bb       C       Dm
E|---------------------------------|   |-----------------------(1)-|
B|---------------------------------|   |-------3-------1-----3-----|
G|-------7---------9----------(10)-| Ķ |-----3-------0-----2-------|
D|-----8--------10---------12------|   |---3-------2-----0---------|
A|---8-------10---------12---------|   |-1-------3-----------------|
E|-6-------8---------10------------|   |---------------------------|

  *Intro: 0:13
E|-------------------------------------------|
B|-------------------------------------------|
G|-5/7-7-9-9/10-10/9-7-7-------7-7-9-9p7-7---|
D|------------------------7/10-------------7-|
A|-------------------------------------------|
E|-------------------------------------------|

  *1:11
E|-----------------------------------10~(10)-10-12-10/5-5-5-5-|
B|--------------8------------(10)-13--------------------------|
G|----7~~-7-9~~---10-9^-7~~-----------------------------------|
D|-10---------------------------------------------------------|
A|------------------------------------------------------------|
E|------------------------------------------------------------|

  *1:34 D       G       A
E|---------------------------------------|
B|-------3--------3------2-2/3/2-----(2)-|
G|-------2--------4------2-----------(2)-|
D|-----4--------5------2-----------2-----|
A|---5--------5------0-----------0-------|
E|-2--------3----------------------------|

      D        G        A
E|-----------------------------------------3-2-|
B|---------3------3--------2h3-5-5-2h3p2-2-----|
G|-------2--------4------2---------------------|
D|-----4--------5------2-----------------------|
A|---5--------5------0-------------------------|
E|-2--------3----------------------------------|


E|---------------------5-----5-----------------------|
B|-3------5--------3-----3-----(3)-----------5-------|
G|---2------2--------4-----4------(4)--6-6h7---7-6---|
D|-----4------4------------------------------------7-|
A|---------------5-----------------------------------|
E|---------------------------------------------------|


E|------------------------5---5---------0-----0-------0-----0-----|
B|-----3-----3------------------3---------2-----2-------2-----2---|
G|-------2-----2------------4---------2-----2-------------2-----2-|
D|---------4-----4------5-----------2---------------2-------------|
A|---5----------------5-----------0---------------0---------------|
E|-2----------------3---------------------------------------------|


E|---------------------------------2----------------------8-8-7h8p7-7-5-5-|
B|---------5-3-----3---3-3-------------7-8/3---------8-10-----------------|
G|-------2-----2-----4-----4------2----------7-7~~------------------------|
D|-----4---------------------5---2----------------------------------------|
A|---5--------------------------0-----------------------------------------|
E|-2-------------3--------------------------------------------------------|


E|----------------------10-8-8/7-7-8-7/5-5-3-5/0-0------|
B|-------7-8-8-9-9-9~~----------------------------2-----|
G|-7-9-9-------------------------------------------2----|
D|--------------------------------------------------2---|
A|---------------------------------------------------0--|
E|----------------------------------------------------0-|

  *3:42
E|-------------------------------10-10-10-10/8-8-10-5-|
B|-------------------------10-13----------------------|
G|------7~-7-9-9h10-9-7~~-----------------------------|
D|-7h10-----------------------------------------------|
A|----------------------------------------------------|
E|----------------------------------------------------|

E|------------------------------10-10-12-10/5-5-5-|
B|--------------8---------10-13-------------------|
G|------7-7-9-7---10-9-7--------------------------|
D|-7-10-------------------------------------------|
A|------------------------------------------------|
E|------------------------------------------------|

E|-----------------------------------------------------------------|
B|-------3-----3---------3-----3---------2-----2---------2-----2---|
G|---------2-----2---------4-----4-----2---2-----2-----2---2-----2-|
D|-----4-----4---------5-----5-------2-------2-------2-------2-----|
A|---5---------------5-------------0---------------0---------------|
E|-2---------------3-----------------------------------------------|


E|-----------------------------------------------------------------|
B|-------3-----3---------3-----3---------2-----2---------2-----2---|
G|---------2-----2---------4-----4-----2---2-----2-----2---2-----2-|
D|-----4-----4---------5-----5-------2-------2-------2-------2-----|
A|---5---------------5-------------0---------------0---------------|
E|-2---------------3-----------------------------------------------|
 |                En esta parte hay dos guitarras                  |
E|-----------------------------------------------------------------|
B|-----------------------------------------------------------------|
G|---7---------7-9-7-------------7---------------6h7p6-------------|
D|-----------7-----------------7-----------------------------------|
A|-----------------------------------------------------------------|
E|-----------------------------------------------------------------|


E|-----------------------------------------------|
B|-----3-------3---3-------3------7-8--------7h8-|
G|-------2------2----2---4---4--------7--7-9-----|
D|---------4-4---4-----5-------5-----------------|
A|---5-------------------------------------------|
E|-2---------------------------------------------|

VERSO:

Bb      C         Dm
Step inside the corridor
Bb      C         Dm
feel your soul invave your senses
Bb       C        Dm
spirite at the gates of winter
Bb       C       Dm
ready for the seasons countdown
Bb       C        Dm
So it goes, the gate is open
Bb        C       Dm
all Your past remains in silence
Bb         C     Dm
but your future is unsure
      Bb     C     Dm     Bb   C  Dm       D   G    A
you plan to go away...


CORO:

D                    G
Never tought that your mind was
  A
away never threw away your wantings
D             G
never kept you by my side
A
now you belong
A
you are obviously mine
D
Jinny come down
G
Jinny come down
 A
close your desires or burn them in fire  
D
Jinny come down
G                     A   D
Jinny come down and feel me..

|-------------------------------------------------------------------------|





Comments


Popular La Ley tabs & chords
A Veces Chords
Paraiso Chords
Surazul Chords
Aqui Tabs
Aqui 3 Tabs
Doble Opuesto 1 Tabs
Eternidad Tabs
Mentira Unplugged Tabs
Paraiso Tabs
Hotel Malibu Ukulele


Song lyrics



↑ Back to top | Tablatures and chords are parodies/interpretations of the original songs. You may use it for private study, scholarship, research or language learning purposes only
© 2014 AZChords.com Contact us | Privacy policy | DMCA | Add/correct tabs | Request tabs | Top 50 tabs