» » »

La Ley, Doble Opuesto Bass tabs (ver.1)

Artists:  A B C D E F G H I J K L M N O P Q R S T U V W X Y Z # 

Doble Opuesto Bass tabs (ver.1)

La Ley Tabs
 Rating:
4.2/5 (5 votes)
Doble Opuesto lessons Tabs too difficult? Try these video lessons and learn fast
                +++++++++++++++++++++++++
| La Ley- Doble Opuesto |
+++++++++++++++++++++++++

EADG

Intro/Intro
1.
G|----------------------------------|
D|--------------------3-2-----------|
A|-----------------------3--3-33----|--x2
E|-33-33-33-3-33-30-1------------01-|

Verse/Verso
"Supe ke tu ya prefieres..."
2.
G|----------------------------------|
D|----------------------------------|
A|-----------------------3--3-33----|--x2
E|-33-33-33-3-33-30-1-1-0--------01-|

3.
G|----------------------------------|
D|--------------------3-2-----------|
A|-----------------------3--3-33----|
E|-33-33-33-3-33-30-1------------01-|

"Los segundos corren poco a poco..."
4.
G|----------------------------------|
D|----------------------------------|
A|-----------------------3--3-33----|
E|-33-33-33-3-33-30-1-1-0--------01-|

"Es cuestión que ya te pongas a pensar..."
5.
G|----------------------------------|
D|----------------------------------|
A|-----------------------3--3-3-323-|
E|-33-33-33-3-33-30-1-1-0-----------|

Chorus/Coro
"Y ya no tocas nisiquiera manos..."
6.
G|--------------------------------|
D|--------------------------------|
A|-00-00-00-0-00-2-3-3--3-3--3-02-|--x2
E|---------------------3----3-----|

"Y poco a poco tu amor me destroza..."
7.
G|--------------------------------------------------------------------|
D|--------------0h2p0-------------------------------------------------|
A|-00-00-00-0-0--------3-3--3-3--3-02--00-00-00-0-00-2-3-3--3-3--3----|
E|--------------------3----3----3--------------------------3----3--01-|

Outro/Outro
8.
G|----------------------------------|
D|--------------------3-2-----------|
A|-----------------------3--3-33----|
E|-33-33-33-3-33-30-1------------01-|

Verse/Verso
"Trepas y no te estremeces..."
9.
G|----------------------------------|
D|----------------------------------|
A|-----------------------3--3-33----|--x2
E|-33-33-33-3-33-30-1-1-0--------01-|

10.
G|----------------------------------|
D|--------------------3-2-----------|
A|-----------------------3--3-33----|
E|-33-33-33-3-33-30-1------------01-|

"Es cuestión que ya te pongas a pensar..."
11.
G|----------------------------------|
D|----------------------------------|
A|-----------------------3--3-3-323-|
E|-33-33-33-3-33-30-1-1-0-----------|

Chorus/Coro
"Y ya no tocas nisiquiera manos..."
12.
G|--------------------------------|
D|--------------------------------|
A|-00-00-00-0-00-2-3-3--3-3--3-02-|--x2
E|---------------------3----3-----|

"Y poco a poco tu amor me destroza..."
13.
G|--------------------------------------------------------------------|
D|--------------0h2p0-------------------------------------------------|
A|-00-00-00-0-0--------3-3--3-3--3-02--00-00-00-0-00-2-3-3--3-3--3-02-|
E|--------------------3----3----3--------------------------3----3-----|

Outro/Outro
14.
G|--------------------------------|
D|--------------------------------|
A|-00-00-00-0-00-2-3-3--3-3--3-02-|--x2
E|---------------------3----3-----|

15.
G|--------------------------------------------------------------------|
D|--------------0h2p0-------------------------------------------------|
A|-00-00-00-0-0--------3-3--3-3--3-02--00-00-00-0-00-2-3-3--3-3--3-02-|
E|--------------------3----3----3--------------------------3----3-----|

And play that until it ends
Y toca eso asta ke termine

Lyrics/Letra:

Supe que tu ya prefieres encontrar tu doble opuesto
Me dijieron los que saben: No te quiere, has lo correcto
Los segundos corren poco a poco y nuestro tiempo vaga
Es cuestión que ya te pongas a pensar
Vuelve a mi, frena tu vuelo

Y ya no tocas ni siquiera manos
Te vas de lado y vas dejando cosas
Y poco a poco tu amor me destroza
Y ya no tocas ni siquiera manos
Ohh

Trepas y no te estremeces por alla resvala a un lado
Me dijieron los que saben que este aferro es solo nuestro
Es cuestión que ya te pongas a pensar
Vuelve a mi, frena tu vuelo

+++++++++++++++++++++++++++++++++
| RaiLeff                       |
+++++++++++++++++++++++++++++++++
            
Submit corrections

comments powered by Disqus
↑ Back to top | La Ley Bass for Doble Opuesto. Lyrics for acoustic guitar and electric guitar. Tablatures and chords are parodies/interpretations of the original songs. You may use it for private study, scholarship, research or language learning purposes only