» » »

La Ley, Doble Opuesto Tabs (ver.2)

Artists:  A B C D E F G H I J K L M N O P Q R S T U V W X Y Z # 

Doble Opuesto Tabs (ver.2)

La Ley Tabs
 Rating:
4/5 (4 votes)
Doble Opuesto lessons Tabs too difficult? Try these video lessons and learn fast
                -=Intro=-
G|----------------------------------------------------------------------------------------|]
D|--------------------------3-2----------------------------------------3-2----------------|]
A|------------------------------3-3-333-1----------------------------------3-3-333-1------|]
E|--3--3-3-3-3--3-333-3-1-1---------------1-3--3--3-3-3-3--3-333-3-1-1---------------1-3--|]

-=Verso 1=-
G|------------------------------------------------------------------------------------------|]
D|------------------------------------------------------------------------------------------|]
A|-------------------------------3--3-333-1----------------------------------3--3-333-1-----|]
E|-3--3-3-3-3--3--333-3-1-1-1-1------------1-3--3--3-3-3-3--3--333-3-1-1-1-1------------1-3-|]

-=Post Verso=-
G|--------------------------------------------|]
D|-------------------------3-2----------------|]
A|-----------------------------3-3-333-1------|]
E|-3--3-3-3-3--3-333-3-1-1---------------1-3--|]

-=Verso 2=-
G|-----------------------------------------------------------------------------------------|]
D|-----------------------------------------------------------------------------------------|]
A|-------------------------------3--3-333-1----------------------------------3--3-333-1----|]
E|-3--3-3-3-3--3--333-3-1-1-1-1------------1-3--3--3-3-3-3--3--333-3-1-1-1-1------------1--|]

-=Coro=-
G|--------------------------------------------------------------------------------|]
D|--------------------------------------------------------------------------------|]
A|--0--0-0-0-0--0-000-2-3-3-0-3-3-333-2h0-0--0-0-0-0--0-000--2-3-3-0-3-3-333-2h0--|]
E|--------------------------------------------------------------------------------|]

G|-----------------------------------------------------------------------------------|]
D|------------------7-5--------------------------------------------------------------|]
A|--0--0-0-0-0--0-0-----3-3-0-3-3-333-2h0--0--0--0-0-0-0--0-000-2-3-3-0-3-3-333-2h0--|]
E|-----------------------------------------------------------------------------------|]

-=Pre Verso=-
G|---------------------------------------------|]
D|--------------------------3-2----------------|]
A|------------------------------3-3-333-1------|]
E|--3--3-3-3-3--3-333-3-1-1---------------1-3--|]

-=Verso 3=-
G|-----------------------------------------------------------------------------------------|]
D|-----------------------------------------------------------------------------------------|]
A|-------------------------------3--3-333-1----------------------------------3--3-333-1----|]
E|-3--3-3-3-3--3--333-3-1-1-1-1------------1-3--3--3-3-3-3--3--333-3-1-1-1-1------------1--|]

-=Post Verso=-
G|---------------------------------------------|]
D|--------------------------3-2----------------|]
A|------------------------------3-3-333-1------|]
E|--3--3-3-3-3--3-333-3-1-1---------------1-3--|] x1

-=Verso 4=-
G|---------------------------------------------|]
D|---------------------------------------------|]
A|-------------------------------3--3-333-1----|]
E|-3--3-3-3-3--3--333-3-1-1-1-1-------------1--|]

-=Coro=-
G|--------------------------------------------------------------------------------|]
D|--------------------------------------------------------------------------------|]
A|--0--0-0-0-0--0-000-2-3-3-0-3-3-333-2h0-0--0-0-0-0--0-000--2-3-3-0-3-3-333-2h0--|]
E|--------------------------------------------------------------------------------|]

G|-----------------------------------------------------------------------------------|]
D|------------------7-5--------------------------------------------------------------|]
A|--0--0-0-0-0--0-0-----3-3-0-3-3-333-2h0--0--0--0-0-0-0--0-000-2-3-3-0-3-3-333-2h0--|]
E|-----------------------------------------------------------------------------------|]

G|--------------------------------------------------------------------------------|]
D|--------------------------------------------------------------------------------|]
A|--0--0-0-0-0--0-000-2-3-3-0-3-3-333-2h0-0--0-0-0-0--0-000--2-3-3-0-3-3-333-2h0--|]
E|--------------------------------------------------------------------------------|]

G|---------------------------------------------------------------------------------------|]
D|------------------7-5------------------------------------------------------------------|]
A|--0--0-0-0-0--0-0-----3-3-0-3-3-333-2h0--0--0--0-0-0-0--0-000-2-3-3-0-3-3-333-2h0--0~~-|]
E|---------------------------------------------------------------------------------------|]

-=Interlude=-

-=Final=-
G|--------------------------------------------------------------------------------|]
D|--------------------------------------------------------------------------------|]
A|--0--0-0-0-0--0-000-2-3-3-0-3-3-333-2h0-0--0-0-0-0--0-000--2-3-3-0-3-3-333-2h0--|]
E|--------------------------------------------------------------------------------|]

G|-----------------------------------------------------------------------------------|]
D|------------------7-5--------------------------------------------------------------|]
A|--0--0-0-0-0--0-0-----3-3-0-3-3-333-2h0--0--0--0-0-0-0--0-000-2-3-3-0-3-3-333-2h0--|]
E|-----------------------------------------------------------------------------------|]

G|--------------------------------------------------------------------------------|]
D|--------------------------------------------------------------------------------|]
A|--0--0-0-0-0--0-000-2-3-3-0-3-3-333-2h0-0--0-0-0-0--0-000--2-3-3-0-3-3-333-2h0--|]
E|--------------------------------------------------------------------------------|]

G|-----------------------------------------------------------------------------------|]
D|------------------7-5--------------------------------------------------------------|]
A|--0--0-0-0-0--0-0-----3-3-0-3-3-333-2h0--0--0--0-0-0-0--0-000-2-3-3-0-3-3-333-2h0--|]
E|-----------------------------------------------------------------------------------|]


Espero le entiendan y sea d' su agrado, es un bajeo muy sencillo, solo q' algo rapido y
preciso en los golpes d' las cuerdas, dudas, correcciones o comentarios
Tijuana, BC, México    Ramón Guillermo Galáz Rios 11/03/05'
            
Submit corrections

comments powered by Disqus
↑ Back to top | La Ley Tabs for Doble Opuesto. Lyrics for acoustic guitar and electric guitar. Tablatures and chords are parodies/interpretations of the original songs. You may use it for private study, scholarship, research or language learning purposes only