» » »

Hold On Tight Tabs (ver.1)

Artists:  A B C D E F G H I J K L M N O P Q R S T U V W X Y Z # 

Hold On Tight Tabs (ver.1)

Lake Of Tears
Rating:
0/5 (0 votes)

Hard to play? Try these video lessons and learn fast.
                Lake of tears - Hold on tight


Tuning: E (normal)

Aucoustic intro:

Gm
When I close my eyes tonight

Bb                              F
Down my dreams the velvet raven flies

Gm
So I hold on tight

Distorted intro:
|-----------------|
|-----------------|
|-----------------|
|-----------------|
|-5---5-8-7-5-3---|
|-3---3-6-5-3-1---|

Verse:
|------------------------------------------------------------|
|------------------------------------------------------------|
|------------------------------------------------------------|
|------------------------------------------------------------|
|-5--------------8--------------3--------------5-------------|
|-3--------------6--------------1--------------3-------------|

Chorus:
|------------------------------------------------------------|
|------------------------------------------------------------|
|------------------------------------------------------------|
|------------------------------------------------------------|
|-5--------------3--------------5--------------3-------------|
|-3--------------1--------------3--------------1-------------|

The solo is played over the verse riff

Aucoustic outro:
F                   Gm
Better hold on tight
            
Hard to play? Try these video lessons and learn fast. | Correct




comments powered by Disqus
↑ Back to top | Tablatures and chords are parodies/interpretations of the original songs. You may use it for private study, scholarship, research or language learning purposes only