» » »

La Gusana Ciega, Tornasol Tabs (ver.3)

Artists:  A B C D E F G H I J K L M N O P Q R S T U V W X Y Z # 

Tornasol Tabs (ver.3)

La Gusana Ciega Tabs
 Rating:
4/5 (4 votes)
Tornasol lessons Tabs too difficult? Try these video lessons and learn fast
1
                

INTRO:
Con guitarra electrica sin distorsion

                A                E                D                E                    Distorcion
e--------0--0--0-----0--0--0--0-----2--2--0-----0--0--0--0----------|-----0--0---|----
B--------2--2--2-----0--0--2--0-----3--3--3-----0--0--2--0----------|-----0--0---|----
G--------2--2--2-----1--1--1--1-----2--2--2-----1--1--1--1----------|-----1--1---|----
D--------2--2--0-----2--2--2--2-----0--0--0-----2--2--2--2----------|-----2--2---|----
A--------0--0--0-----2--2--2--2-------------------2--2--2--2----------|-----2--2---|----
E--------0--0--0-----0--0--0--0-------------------0--0--0--0----------|-----0--0---|----x2


RIFF  1: (a la tercera vez y con distorcion)
      
e----------------------------------------------------------------------------------------------------------
B--------------------------7------ ---------------7-------------------7---------------7-------------------
G---------------6--8--9--------------6--8--9-----------6--8--9--------6--8--9--------9--8--6----
D------7/9--9----------------6/8--8-------------6--6-------------------------------------------------9
A--------------------------------------------------------------------------------------------------------
E----------------------------------------------------------------------------------------------------x2




A       E    D        E             A
Estamos esperando tu cambio de estacion,
       E      D          E         A
tu visión de lluvia tu nueva confusion,
         E      D               E        A
tal vez no sere yo quien pueda descifrarte.

RIFF 1

A      E      D       E             A
Tu disfraz de niña esconde tu mision,
      E      D          E          A
luego te descubres, tormenta de pasion,
         E        D              E         A
tal vez hoy sere yo quien pueda descifrarte.


CORO:
2ª guitarra

e------------0------------0-------------0----------0----
B------0-2---------0-2-------- --0-2-------0-2-------
G---2-----------2-------------2----------2-------------
D--------------------------------------------------
A--------------------------------------------------
E--------------------------------------------------


A         C#m       D          E        A
Vuelves a ser mis sueños mi dulce sirena,
          C#m    D             E            A
vuelves a ser el sol que quema las estrellas,
        C#m          D           E         A
los girasoles pasan horas sin poder besarte,
          C#m    D         E        A
vuelves a ser el universo de repente.

RIFF 1

A    E        D           E          A
Cada vez que cambian tus sueños de color,
       E     D         E            A
luces tan distinta tu piel es tornasol,
       E     D            E         A
tu razon es una funcion interminable.

CORO:
Vuelves a ser mis sueños mi dulce sirena,
vuelves a ser el sol que quema las estrellas,
los girasoles pasan horas sin poder besarte,
vuelves a ser el universo de repente.

A
No creo, 
E
que puedas saber,
A         E                       F#m
lo que se siente caer del parasol,
   A      G#    F#m   A G#m     
Al sueño intermitente,
F#m        A       G#    F#m
de la luz al fondo de tu espera,
A                         D
donde todo gira y luego lentamente.

CORO:
Vuelves a ser mis sueños mi dulce sirena,
vuelves a ser el sol que quema las estrellas
los girasoles pasan horas sin poder besarte
vuelves a ser el universo de repente.

RIFF. 2 veces mas

Es todo, no es tan dificil y si tienes un grupo de musica se escucha de pelos, el ritmo tu escuchalo por que no se como transcribirlo pero si practicas le agarras la onda. Es todo

AMIRA eres mi dueña y mi inspiración :)

Viva el rock ciego de la gusana

Y

LeT ThE MuSiC Be YouR MaSTER
            
Submit corrections

comments powered by Disqus
↑ Back to top | La Gusana Ciega Tabs for Tornasol. Lyrics for acoustic guitar and electric guitar. 1 Tablatures and chords are parodies/interpretations of the original songs. You may use it for private study, scholarship, research or language learning purposes only