>
 >
Ballad Of Jayne

Ballad Of Jayne Guitar Tabs

La Guns - Ballad Of Jayne chords, tabs, tablatures, lyrics

Guitar lessons | Add/correct | Request | Top 50 tabs Artists:  A B C D E F G H I J K L M N O P Q R S T U V W X Y Z 0-9

Ballad Of Jayne Guitar Tabs – La Guns

CD, Sheet music, Poster

Do you like Ballad Of Jayne? Share with your friends now
Tabs
Band:L.A. Guns
Guitars: 1 acoustic, 1 electric(I'll tab that later, it's much harder to figure out)

----------------------------------------------------------------------------
r before a chord name means to roll the chord slightly
^  Hit-on/Pull-off
/  Slide
b  Bend
_  Let Note Ring
On Acoustic, down a half-step(D#,G#,C#,F#,A#,D#) it sounds best with a 12-string, but
it works with a 6-string.

Intro                            
   D      C D     C D     C       
E |-----------------------------||3------------------3----------------|
A |3/5----3-3/5---3-3/5---3-----||-2------2-3---------2------2-3/5---3|
D |-------2-------2-------2-----||--0----0---2-2-------0----0--------2|
G |-----0-0-----0-0-----0-0----0||---0--0-----0----0----0--0-------0-0|
B |----3--1----3--1----3--1-1^0-||-----3--------1^0-------3-------3--1|
E |-------0-------0-------0-----||-----3------------------3----------0|
Verse         
 G         C        G
|3------------------3-------------------|
|-2------2-3---------2------2-3/5---3---|
|--0----0---2-2-------0----0--------2---|
|---0--0-----0----0----0--0-------0-0--0|
|-----3--------1^0-------3-------3--1^0-|
|-----3------------------3----------0---|
1: She    was always something special
   That   diamond shinin bright in the rain
   Everybody dreams of angels
Pre-Chorus
 D              C
|------------------------------|
|0-------0-------3------3------|
|-0-------0-------0------0-----|
|--2---2---2---2---2---2--2---2|
|---3-3-----3-3-----1-1----1-1-|
|----2-------2-------0------0--|
No one will ever know how much I loved you so
Chorus
|3----------------|
|---------3-------|
|-----------------|
|---0--0-----0--0-|
|--3--3-3---3--3-3|
|-3--3-----3--3---|
Now it all seems funny kinda like a dream
Things aint always what they seem
What a Shame
what happened to Jayne
Post Chorus
 D                    D     C D     C D     C
|-----------------------------------------------|
|---------------------3/5---3-3/5---3-3/5---3---|
|0---------0----------------0-------0-------0---|
|-------2---------2-2_----0-2-----0-2-----0-2--0|
|------3---------3--3_---3--1----3--1----3--1^0-|
|---3-2-------3-2---2_------0-------0-------0---|

Structure:
Intro
Verse
Pre-Chorus
Chorus
Post-Chorus
Verse
Pre-Chorus
Chorus
Post-Chorus
Solo(acoustic goes through verse, pre-chorus-chorus)
Intro
Verse
Chorus
Post-Chorus
Chorus





Comments


Popular La Guns tabs & chords
Bitch Is Back Bass Tabs
Hollywood Tease Bass Tabs
One Way Ticket Bass Tabs
Rip And Tear Bass Tabs
It's Over Now 1 Chords
Malaria Tabs
No Mercy Tabs
One Way Ticket Tabs
I Found You Ukulele
Never Enough Ukulele


Song lyrics



↑ Back to top | Tablatures and chords are parodies/interpretations of the original songs. You may use it for private study, scholarship, research or language learning purposes only
© 2014 AZChords.com Contact us | Privacy policy | DMCA | Add/correct tabs | Request tabs | Top 50 tabs