» » »

Lady Antebellum, Our Kind Of Love Tabs (ver.1)

Artists:  A B C D E F G H I J K L M N O P Q R S T U V W X Y Z # 

Our Kind Of Love Tabs (ver.1)

Lady Antebellum Tabs
 Rating:
4/5 (4 votes)
Our Kind Of Love lessons Tabs too difficult? Try these video lessons and learn fast
1
                For the piano part intro,  have two ways of playing it. The first way is easier
but the second way sounds better.

(easy way)

   C#m7sus4 A6sus2         Asus2    E

e-----2--2-----2--0-----0-----0--0-----0--0-----0----------------|
B-----0--0-----0--0-----0-----0--0-----0--0-----0----------------|
G----------------------------------------------------------------|
D----------------------------------------------------------------|
A--4--------0--------------0-------------------------------------|
E-----------------------------------0----------------------------|

(harder way)
e-----2--2-----2--0-----0-----0--0-----0--0-----0----------------|
B-----2--2-----2--2-----2-----2--2-----2--2-----2----------------|
G-----4--4-----4--4-----4-----4--4-----4--4-----4----------------|
D----------------------------------------------------------------|
A--4--------0--------------0-------------------------------------|
E-----------------------------------0----------------------------|


chords
C#m7 x46454
A    x02220
E    022100
C#m  x46654
B    x24442
F#   244322
G#   466544

chords for bridge
C#m  x4665x
G#/C x3654x
E/B  x2245x
F#/C#x1432



C#m7     A                        E
You wear your smile like a summer sky

C#m7              A               E
Just shining down on me and you

C#m7    A                       E
I swear your heart is a, a free bird

     C#m7    A                  E
On a lazy Sunday afternoon

C#m7   A                            E
I love the way that you were up for anything

C#m7  A                         E
Never worried 'bout what people say, that's right

C#m        B              F#
Oh, that's right, what we got is

A         E             B    C#m
Just like driving on an open highway

A     E                  B     C#m
Never knowing what we're gonna find

A             E           B                C#m
Just like two kids, baby, always trying to live it up

F# G#   A
Whoa,   yeah, that's our kind of love


Skipping rocks and leaving footprints
Down there on the riverbank
Always holding hands, never making plans
Just living in the moment, babe

You get me laughing with those funny faces
You somehow always know just what to say, that's right
Whoa, that's right, what we got is

Just like driving on an open highway
Never knowing what we're gonna find
Just like two kids, baby, always trying to live it up
Whoa, yeah, that's our kind of love

That's our kind of love

C#m        G#/C                 E/B
Oh, that's right, baby, you and I

        F#/A#
What we got is

Just like driving on an open highway
Never knowing what we're gonna find
Just like two kids, baby, always trying to live it up
Whoa, oh, oh yeah

Just like driving on an open highway
Never knowing what we're gonna find
Just like two kids, baby, always trying to live it up
Whoa, yeah, that's our kind of love

Ooh, that's our kind of love
Whoa, that's our kind of love
            
Submit corrections

comments powered by Disqus
↑ Back to top | Lady Antebellum Tabs for Our Kind Of Love. Lyrics for acoustic guitar and electric guitar. 1 Tablatures and chords are parodies/interpretations of the original songs. You may use it for private study, scholarship, research or language learning purposes only