» » »

Such Small Hands Bass tabs (ver.2)

Artists:  A B C D E F G H I J K L M N O P Q R S T U V W X Y Z # 

Such Small Hands Bass tabs (ver.2)

La Dispute
Rating:
0/5 (0 votes)

Hard to play? Try these video lessons and learn fast.
                -------------------------------------------------------------------------------
                             Such Small Hands - La Dispute
-------------------------------------------------------------------------------


Tuning: Standard
\ = slide down

Note: Those are tens, not one zero.
g|----------------------------------------------------------|
d|----------------------------------------------------------|
a|-12\----------88-8--1010-10-----------88-8--1010-10-------| 
e|-----55--55------------------55-55-5-----------------55~--|

g|----------------------------------------------------|
d|----------------------------------------------------|
a|---------88~-8--1010-10-----------------------------|
e|--55~-5-----------------55~--55~-5--11~--33~--55----|

g|-----------------------------------------------------|
d|-----------------------------------------------------|
a|-----------88~-88~----------88~-88~---------88~-88~--|
e|--88~-88~----------88~-88~----------88~-88~----------|

g|--------------------------------|
d|--------------------------------|
a|--------------------------------|
e|--55~-33~-55~-33~-55~-33~-3-8~--|
            
Hard to play? Try these video lessons and learn fast. | Correct




comments powered by Disqus
↑ Back to top | Tablatures and chords are parodies/interpretations of the original songs. You may use it for private study, scholarship, research or language learning purposes only