» » »

La Dispute, Last Blues For Bloody Knuckles Tabs (ver.1)

Artists:  A B C D E F G H I J K L M N O P Q R S T U V W X Y Z # 

Last Blues For Bloody Knuckles Tabs (ver.1)

La Dispute Tabs
 Rating:
4.3/5 (6 votes)
Last Blues For Bloody Knuckles lessons Tabs too difficult? Try these video lessons and learn fast
                Length: 5:01

============================================================================


============================================================================

Info:
I tabbed both guitar parts to the best of my ability. I'm sure I've made mistakes 
somewhere along the line because I am by no means an expert guitarist, so 
corrections would be lovely. I also included the settings that I use to achieve 
the sound closest to that of the recorded track for anyone interested. I use a 
Digitech Bad Monkey overdrive and a Boss DD-3 digital delay.

============================================================================

Key:
h      : Hammer-On
p      : Pull-Off
/ or \ : Slide
X      : Mute
<#>    : Harmonic 
~      : Let ring
PM--|  : Palm-mute

============================================================================

A : Guitar 1 (Standard Tuning)
B : Guitar 2 (Standard Tuning)

-----
Section I-A (Starts 0:03)
-----
Delay- (E. Level: 2 o'clock/Feedback: 11 o'clock/Delay Time: 12 o'clock/Mode: 800ms)

e|-5p0~---7p0~---8p0~---8p0~--12p0~------------------------|
B|---------------------------------------------------------|
G|---------------------------------------------------------|
D|---------------------------------------------------------|
A|---------------------------------------------------------|
E|---------------------------------------------------------| x10

-----
Section I-B (Starts 0:52)
-----

e|---------------------------------------------------------|
B|---------------------------------------------------------|
G|---9-7--5h7----------------------------------------------|
D|-7----------7-7h9---5-5/7--------------------------------|
A|------------------7-------0------------------------------|
E|---------------------------------------------------------| x4

-----
Section II-A (Starts 1:17)
-----
Same effects as section I-A

**Note: At the parts designated by the *, 
play as many hammer-ons as need be to make it sound right**

e|-12--12--------------------------------------------------|       \
B|---------13--13--12--12--10--10--------------------------|        \
G|--------------------------------9-9------7h9h9h9*--------|         \
D|-------------------------------------7h9-----------------| II-A-i   \
A|---------------------------------------------------------|           \
E|---------------------------------------------------------|            \
                                                                          x2
e|-12--12--------------------------------------------------|            /
B|---------13--13--12--12--10--10--------------8h10h10*----|           /
G|--------------------------------9-9------7h9-------------| II-A-ii  /
D|-------------------------------------7h9-----------------|         /
A|---------------------------------------------------------|        /
E|---------------------------------------------------------|       /

-----
Section II-B 
(Starts 1:22)
-----

**Note: Play II-B-i both times Guitar A plays II-A-i 
BUT only play II-B-ii the first time Guitar A plays II-A-ii**

        II-B-i          II-B-ii 
e|-X-X-X--X-X-X-X-X-||-----------|
B|-X-X-X--X-X-X-X-X-||-----------|
G|-X-X-X--X-X-X-X-X-||-----------|
D|-X-X-X--X-X-X-X-X-||----<7>----|
A|-X-X-X--X-X-X-X-X-||-----------|
E|-X-X-X--X-X-X-X-X-||-----------|

-----
Section III-A 
(Starts 1:42)
-----
Same delay effects as I-A and II-A
Overdrive- (Level: (Whatever necessary)/Low, High, and Gain: Max)

**Note: At the parts designated by the *, 
play as many hammer-ons as need be to make it sound right**

e|-12--12--------------------------------------------------|      
B|---------13--13--12--12--10--10--------------------------|       
G|--------------------------------9-9------7h9h9h9*--------|        
D|-------------------------------------7h9-----------------| 
A|---------------------------------------------------------|          
E|---------------------------------------------------------|           
                                                                         
e|-12--12--------------------------------------------------|           
B|---------13--13--12--12--10--10--------------8h10h10*----|          
G|--------------------------------9-9------7h9-------------| 
D|-------------------------------------7h9-----------------|        
A|---------------------------------------------------------|       
E|---------------------------------------------------------|       

e|-12--12--------------------------------------------------|      
B|---------13--13--12--12--10--10--------------------------|       
G|--------------------------------9-9------7h9h9h9*--------|        
D|-------------------------------------7h9-----------------| 
A|---------------------------------------------------------|          
E|---------------------------------------------------------| 

e|-12--12----------15--15-----------------------------------|
B|---------13--13----------12--12--10--10----------8h10h10*-|
G|---------------------------------------------7h9----------|
D|-----------------------------------------7h9--------------|
A|----------------------------------------------------------|
E|----------------------------------------------------------|

e|-15--15---------------------------------------------------|      
B|---------16--16--15--15--13--13---------------------------|       
G|---------------------------------12--12-------10h12h12*---|        
D|----------------------------------------11h13-------------| 
A|----------------------------------------------------------|          
E|----------------------------------------------------------| 

e|-15--15-------------------------------------------------------|      
B|---------16--16--15--15--13--13---------------------11h13h13*-|       
G|---------------------------------12--12-------10h12-----------|        
D|----------------------------------------11h13-----------------| 
A|--------------------------------------------------------------|          
E|--------------------------------------------------------------| 

e|-15--15---------------------------------------------------|      
B|---------16--16--15--15--13--13---------------------------|       
G|---------------------------------12--12-------10h12h12*---|        
D|----------------------------------------11h13-------------| 
A|----------------------------------------------------------|          
E|----------------------------------------------------------| 

e|-15--15----------18--18---------------------------------------|      
B|---------16--16----------15--15--13--13-------------11h13h13*-|       
G|----------------------------------------------10h12-----------|        
D|----------------------------------------11h13-----------------| 
A|--------------------------------------------------------------|          
E|--------------------------------------------------------------| 

-----
Section III-B (Starts 1:42)
-----
Overdrive- (Level: (Whatever necessary)/Low, High, and Gain: Max)

:::::::::::::::::::::::::::::::::::::::::::::::::::::::::
:::I HONESTLY CANNOT FIGURE OUT THE RHYTHM GUITAR HERE:::
:::::::::::::::::::::::::::::::::::::::::::::::::::::::::

-----
Section IV-A (Starts 2:31)
-----
Same delay effects as I-A and II-A

**Note: At the parts designated by the *, 
play as many hammer-ons as need be to make it sound right**

e|--------------------------------------------------------------|       \ 
B|-15--15------------------10--10-------------------------------|        \
G|---------15--15--12--12----------7--7-------------------------|         \
D|---------------------------------------------10h12h12*--------|          \
A|---------------------------------------10h12------------------|           \
E|--------------------------------------------------------------|            \
                                                                               x4 
e|--------------------------------------------------------------|            /
B|-15--15----------18--18--10--10-------------------------------|           /
G|---------15--15------------------7--7--------------10h12h12*--|          /
D|---------------------------------------------10h12------------|         /
A|---------------------------------------10h12------------------|        /
E|--------------------------------------------------------------|       /

-----
Section IV-B (Starts 2:55)
-----

e|----------------------------------------------------------|      
B|----------------------------------------------------------|     
G|-------12-10----------------12-10-------------------------|          
D|----12-------12-10-12----12-------12-10/8----12-0~--------|  
A|-10-------------------10------------------10--------------|          
E|----------------------------------------------------------| x8 (Play 4x with Guitar IV-A,
PM:------------------------------------------------| 2x alone, and remove palm-mutes for final 2x)


I know that's not the whole song, but that's all I've got so far. I'm sure this 
can be used as a starting point for many people.
            
Submit corrections

comments powered by Disqus
↑ Back to top | La Dispute Tabs for Last Blues For Bloody Knuckles. Lyrics for acoustic guitar and electric guitar. Tablatures and chords are parodies/interpretations of the original songs. You may use it for private study, scholarship, research or language learning purposes only