>
 >
He Is Here, He Is Not Afraid

He Is Here, He Is Not Afraid Guitar Tabs

La Dispute - He Is Here, He Is Not Afraid chords, tabs, tablatures, lyrics

Guitar lessons | Add/correct | Request | Top 50 tabs Artists:  A B C D E F G H I J K L M N O P Q R S T U V W X Y Z 0-9

He Is Here, He Is Not Afraid Guitar Tabs – La Dispute

CD, Sheet music, Poster

Do you like He Is Here, He Is Not Afraid? Share with your friends now
Bass TabsTabs
Alright. This is my first ever tab, so don't be too harsh. I know it's not all correct,
but I think I did pretty well for what I feel as a difficult song to figure out. Anyway,
comment to help be fix my mistakes, rate, and have fun. You have artistic liscence to 
change something you don't like, so use it :)Great song from a great band off of their
album Vancouver. I got the lyrics of of kovideo.net.

Oh yeah. Its in drop D

Guitar 1-01-1:03

e|-8--7--0--8--7--0-----8--7--0--8--7--0-------------------------------------|
B|---------------------------------------------------------------------------|
G|---------------------------------------------------------------------------|x13
D|---------------------------------------------------------------------------|
A|------------------0--------------------0-----------------------------------|
D|---------------------------------------------------------------------------|



Guitar 2:0:10-0:58 (I believe some sort of special effect is used here to make the final
notes of each phrase ring. Either that or a third guitar.)

e|--------------------------------------------------------------------------------------12|
B|-10-10--13-13--10-13-----------12-12--------------12-12------10-10--13-10--10h13-10h13--|
G|-----------------------12-12-----------12-----------------------------------------------|x8
D|-------------------------------------------14-14----------14----------------------------|
A|----------------------------------------------------------------------------------------|
D|----------------------------------------------------------------------------------------|


Guitar 1 or 2-1:04
e|---------------------------------------------------------------------------|
B|---------------------------------------------------------------------------|
G|---------------------------------------------------------------------------|
D|-7-7-7-3--7-7-3-7--7-7-3-7--7-3-7-7--7-3-7-7--3-7-7-7--3-7-7-3--7----------|
A|-7-7-7-3--7-7-3-7--7-7-3-7--7-3-7-7--7-3-7-7--3-7-7-7--3-7-7-3--7----------|
D|-7-7-7-3--7-7-3-7--7-7-3-7--7-3-7-7--7-3-7-7--3-7-7-7--3-7-7-3--7----------|

Guitar 2-1:17
e|--------------------------------------------------------------------------------------12|
B|-10-10--13-13--10-13-----------12-12--------------12-12------10-10--13-10--10h13-10h13--|
G|-----------------------12-12-----------12-----------------------------------------------|x4
D|-------------------------------------------14-14----------14----------------------------|
A|----------------------------------------------------------------------------------------|
D|----------------------------------------------------------------------------------------|



Guitar 1-1:21

e|---------------------------------------------------------------------------|
B|---------------------------------------------------------------------------|
G|---------------------------------------------------------------------------|x4
D|------------------------------------------7--8--7--8--7--------------------|
A|------------------------------------------7--8--7--8--7--------------------|
D|------------------------------------------7--8--7--8--7--------------------|


Guitar 2:1:39 (i honestly don't know what he does here but when i play this is sounds decent.)
e|--------------------------12-----------------------------------------------|
B|-10h13-10h13-10h13-10h13---------------------------------------------------|
G|---------------------------------------------------------------------------|x3
D|---------------------------------------------------------------------------|
A|---------------------------------------------------------------------------|
D|---------------------------------------------------------------------------|

Guitar 1-1:39
E|---------------------------------------------------------------------------|
B|---------------------------------------------------------------------------|
G|---------------------------------------------------------------------------|x3
D|------------------------------------------7--8--7--8--7--------------------|
A|------------------------------------------7--8--7--8--7--------------------|
D|------------------------------------------7--8--7--8--7--------------------|


Guitar 1: 1:56 There is that short then a single note gets played. Heavy distortion.
Throw in a vibrato if you choose.
E|---------------------------------------------------------------------------|
B|---------------------------------------------------------------------------|
G|----14---------------------------------------------------------------------|
D|---------------------------------------------------------------------------|
A|---------------------------------------------------------------------------|
D|---------------------------------------------------------------------------|


Guitar 2: 2:06
E|---------------------------------------------------------------------------|
B|---------------------------------------------------------------------------|
G|---------------------------------------------------------------------------|x12
D|-2-2-2-2-2-2-2-2-2-2-2-2-2-2-2-2--7-7-7-7-7-7-7-7-7-7-7-7-7-7-7-7----------|
A|-0-0-0-0-0-0-0-0-0-0-0-0-0-0-0-0--5-5-5-5-5-5-5-5-5-5-5-5-5-5-5-5----------|
D|---------------------------------------------------------------------------|

Guitar1-2:23
E|---------------------------------------------------------------------------|
B|---------------------------------------------------------------------------|
G|---------------------------------------------------------------------------|
D|-2-2-2-2-2-2-2-2-2-2-2-2-2-2-2-2-3-3-3-3-3-3-3-3-5-5-5-5-7-7-7-7-----------|
A|---------------------------------------------------------------------------|
D|---------------------------------------------------------------------------|

E|---------------------------------------------------------------------------|
B|---------------------------------------------------------------------------|
G|---------------------------------------------------------------------------|
D|-2-2-2-2-2-2-2-2-2-2-2-2-2-2-2-2-3-3-3-3-3-3-3-3-2-2-2-2-------------------|
A|---------------------------------------------------------3-3-3-3-----------|
D|---------------------------------------------------------------------------|


Guitar 1-2:59
E|---------------------------------------------------------------------------|
B|---------------------------------------------------------------------------|
G|---------------------------------------------------------------------------|
D|-10-9--10-9--10-9--5-5-5---------------------------------------------------|x10
A|-xx-x--xx-x--xx-x--5-5-5---------------------------------------------------|
D|-xx-x--xx-x--xx-x--5-5-5---------------------------------------------------|


Guitar 2-3:06 (play the first sequence three times then follow up by replacing the
nine's with ten's, then repeat.)
E|---------------------------------------------------------------------------|
B|-10-10-10-10-10-10-10-10-10-9-9-9-x3--10-10-10-10-10-10-10-10-10-10-10-10--|
G|---------------------------------------------------------------------------|x2
D|---------------------------------------------------------------------------|
A|---------------------------------------------------------------------------|
D|---------------------------------------------------------------------------|
We move by instinct, darling. Let our hands be hatchets, let us wander blindly, swinging
madly in a forest made of flesh.
We move by instinct, darling let our eyes like lepers drive the doubters from our homes
and into the bottom of the sea.


Guitar 1 or 2-3:32 (I do a down/up/up strum pattern here in order to bring out the high
7's and 3's on the D string)
E|---------------------------------------------------------------------------|
B|---------------------------------------------------------------------------|
G|---------------------------------------------------------------------------|
D|-7-7-7-7-7-7-7-7-7-7-7-7--3-3-3-3-3-3-3-3-3-3-3-3--------------------------|x4
A|-7-7-7-7-7-7-7-7-7-7-7-7--3-3-3-3-3-3-3-3-3-3-3-3--------------------------|
D|-7-7-7-7-7-7-7-7-7-7-7-7--3-3-3-3-3-3-3-3-3-3-3-3--------------------------|
And we speak in signals, darling
Let our smoke stitch pictures, let us
Twist in patterns, dull the horror
Of a city still on fire, for
We are like medics handling
Suicide by cyanide with
bleeding fingers,let us suffer
Completely inadequate.



Guitar 1 or 2-3:59 (this part looks confusing but it isn't hard to figure out. play the
7's on B & G on 3 of the six repeats.)
E|---------------------------------------------------------------------------|
B|----------------------------------------------------[7-7-7-7-7-7]----------|
G|--------------------------7-7-7-7-7-7-(7-7-7-7-7-7)-[7-7-7-7-7-7]----------|x6
D|-7-7-7-7-7-7-7-7-7-7-7-7--7-7-7-7-7-7-(7-7-7-7-7-7)------------------------|
A|-7-7-7-7-7-7-7-7-7-7-7-7--5-5-5-5-5-5-(5-5-5-5-5-5)------------------------|
D|-7-7-7-7-7-7-7-7-7-7-7-7---------------------------------------------------|
And we move like lovers, darling
Let me run my fingers down your side
And kiss you right below the eye.
We sleep with shadows but
We never give them bread.
Horror, dress yourself in shame
Or I will tear a hole in you, you harlot.
Burn your eyes, I will hold your
White-washed bones unto the sky and
Scream "oh god, if you are there,
I hold this body to your judgment--
Give it your wrath or your mercy.

Guitar 1 or 2-
E|---------------------------------------------------------------------------|
B|---------------------------------------------------------------------------|
G|7-7-7-7-7-7-7-7-7-7-7-7---------------------------7-7-7-7-7-7-7-7-7-7-7-7--|
D|7-7-7-7-7-7-7-7-7-7-7-7--7-7-7-7-7-7-7-7-7-7-7-7--7-7-7-7-7-7-7-7-7-7-7-7--|
A|5-5-5-5-5-5-5-5-5-5-5-5--7-7-7-7-7-7-7-7-7-7-7-7--5-5-5-5-5-5-5-5-5-5-5-5--|
D|-------------------------7-7-7-7-7-7-7-7-7-7-7-7---------------------------|
But please pick wrath
Please pick wrath
Please. Pick.


Well, that's about it. It's not perfect but don't forget to rate and comment.
Travis





Comments


Popular La Dispute tabs & chords
He Is Here, He Is Not Afraid Bass Tabs
Such Small Hands 1 Bass Tabs
The Most Beautiful Bitter Fruit Bass Tabs
A Departure Tabs
A Word Of Welcome And Of Warning Tabs
Edward Benz 27 Times Intro Tabs
Nobody, Not Even The Rain Tabs
Six Tabs
Ten Tabs
Eight Ukulele


Song lyrics



↑ Back to top | Tablatures and chords are parodies/interpretations of the original songs. You may use it for private study, scholarship, research or language learning purposes only
© 2014 AZChords.com Contact us | Privacy policy | DMCA | Add/correct tabs | Request tabs | Top 50 tabs