» » »

Lacuna Coil, This Is My Dream Bass tabs (ver.2)

Artists:  A B C D E F G H I J K L M N O P Q R S T U V W X Y Z # 

This Is My Dream Bass tabs (ver.2)

Lacuna Coil Tabs
 Rating:
4/5 (4 votes)
This Is My Dream lessons Tabs too difficult? Try these video lessons and learn fast
                Intro/Verse:
|----------------------------|
|-----------------------0--2-|
|----2--0---------2--0-------| 7x
|-0-------3-2--0-------------|
|----------------------------|

Chorus:
|--------------------------------------------------------------------|
|-2-2-2----------------------------2-2-2-----------------0-0-0-0-2-2-|
|-------2-2-2-2-2-0-0-0------------------2-2-2-2-2-0-0-0-------------| 2x
|-----------------------3-3-3-2-2------------------------------------|
|--------------------------------------------------------------------|

PreVerse:
|---------------|
|---------------|
|-7-(let ring)--|
|---------------|
|---------------|

1st Part of 2nd Verse:
|----------------------------|
|-2------------2--------0--2-|
|----2--0---------2--0-------|
|---------3-2----------------|
|----------------------------|

Rest is like Verse 1 3x

Chorus 2x

Bridge:
|----------------------------------------------------|
|-2-------------------0--2----------------------0--2-|
|----2--0--------2-0----------2--0--------2--0-------|
|---------3-2-0------------0-------3-2-0-------------|
|----------------------------------------------------|

Interlude:
|-----------------------------------------------------------------|
|-----------------------------------------------------------------|
|-----------------2222222222222222-----------------------22222222-|
|-3333333333333333----------------33333333333333322222222---------|
|-----------------------------------------------------------------|

Chorus 8x (fade out after 5x)
            
Submit corrections

comments powered by Disqus
↑ Back to top | Lacuna Coil Bass for This Is My Dream. Lyrics for acoustic guitar and electric guitar. Tablatures and chords are parodies/interpretations of the original songs. You may use it for private study, scholarship, research or language learning purposes only