» » »

Prophet Said Bass tabs (ver.1)

Artists:  A B C D E F G H I J K L M N O P Q R S T U V W X Y Z # 

Prophet Said Bass tabs (ver.1)

Lacuna Coil
Rating:
0/5 (0 votes)

Hard to play? Try these video lessons and learn fast.
                Lacuna Coil: The Prophet Said


G------------------------------
D------------------------------
A------------------------------
E------------------------------
B--3-3-3-3------3-3-3-3--
intro

G-------------------------------------------------------------------
D-------------------------------------------------------------------
A-------------------------------------------------------------------
E-------------------------------------------------------------------
B-3-3-3-3-3-3-3--5-5-5-5-5-5-5--6-6-6-6-6-6-6-6--5-5-5-5-5-5-5-5-5--
verses

G-----------------------------------------------
D-----------------------------------------------
A--------1----------------------1--------------
E--3----------------5----3--------------------
B--------------3----------------------3----1--
chorus

G-----------------------
D-----------------------
A--------0----1----3--
E-----------------------
B--3-------------------
break @2:47
            
Hard to play? Try these video lessons and learn fast. | Correct




comments powered by Disqus
↑ Back to top | Tablatures and chords are parodies/interpretations of the original songs. You may use it for private study, scholarship, research or language learning purposes only