» » »

Stars 1 Bass

Artists:  A B C D E F G H I J K L M N O P Q R S T U V W X Y Z # 

Stars 1 Bass

(ver. 2)
Lacuna Coil Tabs
 Rating:
4/5 (4 votes)
    Stars lessons Tabs too difficult? Try these video lessons and learn fast
                Lacuna Coil: Stars
Any questions email 

G---------------------------
D---------------------------
A-4--3---------1---4---3----
E-------1--1--------------1-


G-----------------------
D-------1---------------
A-4--3------1---4--3----
E---------------------1-
            
Submit corrections

↑ Back to top | Lacuna Coil Bass for Stars. Lyrics for acoustic guitar and electric guitar. Tablatures and chords are parodies/interpretations of the original songs. You may use it for private study, scholarship, research or language learning purposes only