» » »

Lacuna Coil, Humane Bass tabs (ver.2)

Artists:  A B C D E F G H I J K L M N O P Q R S T U V W X Y Z # 

Humane Bass tabs (ver.2)

Lacuna Coil Tabs
Rating:
0/5 (0 votes)
Humane lessons Tabs too difficult? Try these video lessons and learn fast
                Intro/Verse:
|-------------|
|-------------|
|-------1-----| 6x
|-3-----------|
|----3-----1--|

Bridge:
|--------------------------|
|--------------------------|
|-------------------3--(1)-| 
|-1-----------1------------|
|----1--4--4-----1---------|

Chorus:
|---------| 		       |---------|
|---0-1-3-|		       |---0-1-3-|
|---------| variate with this: |-3-------|  4x
|---------|		       |---------|
|-1-------|		       |---------|

Verse 2x

Bridge

Chorus 4x

Interlude:
|---------------------------------|
|---------------------------------|
|-5---5---1---3---6---6---1---5---|
|---------------------------------|
|---------------------------------|

|---------------------------------|
|---------------------------------|
|-66-6666-66-6666-11-1111-55-5555-|
|---------------------------------|
|---------------------------------|

|--------------|
|--------------|
|--------------|
|-3-(let ring)-|
|--------------|

|---------|
|---------|
|---0-1-3-| 2x
|-3-------|
|---------|

Chorus 8x

End:
|--------------|
|--------------|
|--------------|
|-3-(let ring)-|
|--------------|
            

comments powered by Disqus
↑ Back to top | Lacuna Coil Bass for Humane. Lyrics for acoustic guitar and electric guitar. Tablatures and chords are parodies/interpretations of the original songs. You may use it for private study, scholarship, research or language learning purposes only