>
 >
Fragile

Fragile Guitar Tabs

Lacuna Coil - Fragile chords, tabs, tablatures, lyrics

Guitar lessons | Add/correct | Request | Top 50 tabs Artists:  A B C D E F G H I J K L M N O P Q R S T U V W X Y Z 0-9

Fragile Guitar Tabs – Lacuna Coil

CD, Sheet music, Poster

Do you like Fragile? Share with your friends now
TabsTabs v2
Band: Lacuna Coil

Intro (mostly bass here)
C#-----------------------------------|
G#-----------------------------------|
E------------------------------------|
B------------------------------------|
F#-----------------------------------|
B---0---0---0-1-----0-0-0--0-1-------|    

Chorus (I'll let you figure out the rhythm here)
(Play this twice)
C#----------------------------------------------|
G#----------------------------------------------|
E-----------------------------------------------|
B---12---5---8---10-----12---5----8---3--2------|
F#--12---5---8---10-----12---5----8---3--2------|
B---12---5---8---10-----12---5----8---3--2------|
                                

Verse: (Play around with it, sometimes you don't palm mute, sometimes you do)
C#----------------------------------------------|
G#----------------------------------------------|
E-----------------------------------------------|
B---0--0--0---5--5--5---8--8--8---3--3--3-------|
F#--0--0--0---5--5--5---8--8--8---3--3--3-------|
B---0--0--0---5--5--5---8--8--8---3--3--3-------|
    x  x  x             x  x  x

Interlude between verse and chorus:
C#-----------------------------------------------------------------|
G#-----------------------------------------------------------------|
E------------------------------------------------------------------|
B------------------------------------------------------------------|
F#-----------------------------------------------------------------|
B--0-0-0-2-2-2-3-3-3-2-2-3-5-5-5---0-0-0-2-2-2-3-3-3-2-2-3-7-7-7---|

C#----------------------------------------------------------------|
G#----------------------------------------------------------------|
E-----------------------------------------------------------------|
B--------------------------------------------------3--3--3--------|
F#----------------------------------------------------------------|
B--0-0-0-2-2-2-3-3-3-2-2-3-5-5-5---0-0-0-2-2-2-3-3----------------|
                                                   (Bend these notes)
Chorus: (twice)
C#----------------------------------------------|
G#----------------------------------------------|
E-----------------------------------------------|
B---12---5---8---10-----12---5----8---3--2------|
F#--12---5---8---10-----12---5----8---3--2------|
B---12---5---8---10-----12---5----8---3--2------|

Short interlude between chorus and verse:
C#-----------------------------------------------|
G#-----------------------------------------------|
E------------------------------------------------|
B------------------------------------------------|
F#-----------------------------------------------|
B--0-0-0-2-2-2-3-3-3-2-2-3-5-5-5--3-3-3-5-5-5-6--|

Verse 2:
C#----------------------------------------------|
G#----------------------------------------------|
E-----------------------------------------------|
B---0--0--0---5--5--5---8--8--8---3--3--3-------|
F#--0--0--0---5--5--5---8--8--8---3--3--3-------|
B---0--0--0---5--5--5---8--8--8---3--3--3-------|
    x  x  x             x  x  x


Interlude between verse and chorus:
C#-----------------------------------------------------------------|
G#-----------------------------------------------------------------|
E------------------------------------------------------------------|
B------------------------------------------------------------------|
F#-----------------------------------------------------------------|
B--0-0-0-2-2-2-3-3-3-2-2-3-5-5-5---0-0-0-2-2-2-3-3-3-2-2-3-7-7-7---|

C#----------------------------------------------------------------|
G#----------------------------------------------------------------|
E-----------------------------------------------------------------|
B--------------------------------------------------3--3--3--------|
F#----------------------------------------------------------------|
B--0-0-0-2-2-2-3-3-3-2-2-3-5-5-5---0-0-0-2-2-2-3-3----------------|

Chorus: (twice)                                       
C#----------------------------------------------|-----|
G#----------------------------------------------|-----|
E-----------------------------------------------|-----|
B---12---5---8---10-----12---5----8---3--2------|--0--| (let this ring)
F#--12---5---8---10-----12---5----8---3--2------|--0--|
B---12---5---8---10-----12---5----8---3--2------|--0--|

Intro again
C#-----------------------------------|
G#-----------------------------------|
E------------------------------------|
B------------------------------------|
F#-----------------------------------|
B---0---0---0-1-----0-0-0--0-1-------|

Chorus: (twice)
C#----------------------------------------------|
G#----------------------------------------------|
E-----------------------------------------------|
B---12---5---8---10-----12---5----8---3--2------|
F#--12---5---8---10-----12---5----8---3--2------|
B---12---5---8---10-----12---5----8---3--2------|

Outro: (mess around with the rhythm of this, but these are the notes)
C#--------------------------------------------------------|
G#--------------------------------------------------------|
E---------------------------------------------------------|
B---------------------------------------------------------|
F#--------------------------------------------------------|
B---0--0--1---0-0-0-0-0-1--0-0--0-0-0-1--0-0-0-0-0-1------|





Comments


Popular Lacuna Coil tabs & chords
Cold Heritage Bass Tabs
Comalies Bass Tabs
Purify 3 Bass Tabs
To Myself I Turned Chords
Cold Tabs
Distant Sun Tabs
Falling Again Tabs
Game Tabs
Spellbound Tabs
This Is My Dream Tabs


Song lyrics



↑ Back to top | Tablatures and chords are parodies/interpretations of the original songs. You may use it for private study, scholarship, research or language learning purposes only
© 2014 AZChords.com Contact us | Privacy policy | DMCA | Add/correct tabs | Request tabs | Top 50 tabs