>
 >
Aeon

Aeon Guitar Tabs

Lacuna Coil - Aeon chords, tabs, tablatures, lyrics

Guitar lessons | Add/correct | Request | Top 50 tabs Artists:  A B C D E F G H I J K L M N O P Q R S T U V W X Y Z 0-9

Aeon Guitar Tabs – Lacuna Coil

CD, Sheet music, Poster

Do you like Aeon? Share with your friends now
TabsTabs v2
----------------------------------------------------------------------------
----------------------------------------------------------------------------

Tuning: EADGBe

 Part 1 (played all throughtout song, except for on part 3)
e|--------------------------------|---------------------------------------|
B|--------------------------------|---------------------------------------|
G|.-------------------------------|--------------------------------------.|
D|.---------2/4-0---------0-------|--------2/4-0-------0-----------------.|
A|-------------------5/7----------|----------------5/7--------------------|
E|--0--0-----------0--------0-5/7-|-0--0---------0-------0-5/7------------|
 
Part 2
e|--------------------------------|---------------------------------------|
B|--------------------------------|---------------------------------------|
G|.--9p7--7\6--7\6----------------|---------------------------------------|
D|.-----------------7-7--7/9-9----|-9/11-11-11/12-12-11-------------6h7-7-|
A|--------------------------------|---------------------------------------|
E|--------------------------------|---------------------------------------|

e|--------------------------------|---------------------------------------|
B|--------------------------------|---------------------------------------|
G|--------------------------------|--------------------------------------.|
D|-7p6-6-6-6\4-4-4-0-0-0h2--------|--------------------------------------.|
A|--------------------------------|---------------------------------------|
E|--------------------------------|---------------------------------------|

(part one loops, its not skipping)

 Part 3 4x  (no part 1)            
e|------------------------0-------|---------|--------|--------|-----------|
B|---------------0----0-----0---0-|---------|--------|-only---|-----------|
G|-4/5---0---5----------------0---|-Part-2--|-Part 3-|-part 1-|-----------|
D|-x------------------------------|-----1x--|--------|-for 8--|-----------|
A|-0---0---0---0----0---0---------|---------|--------|-bars---|-----------|
E|--------------------------------|---------|--------|--------|-0---------|

I'm pretty confident this is how it is, timing and all. :) Theres more than two guitars
for most of the song, thats how Part 1 is played for basically all of it. 

| /  slide up
| \  slide down
| h  hammer-on
| p  pull-off
| ~  vibrato
| +  harmonic
| x  Mute note
============================================================================





Comments


Popular Lacuna Coil tabs & chords
Enjoy The Silence Bass Tabs
Hyperfast 2 Bass Tabs
Closer 1 Tabs
Cold 1 Tabs
Enjoy The Silence Tabs
Enjoy The Silence 2 Tabs
Falling Again Tabs
Falling Again 2 Tabs
Fragile Intro Tabs
No Need To Explain 1 Tabs


Song lyrics



↑ Back to top | Tablatures and chords are parodies/interpretations of the original songs. You may use it for private study, scholarship, research or language learning purposes only
© 2014 AZChords.com Contact us | Privacy policy | DMCA | Add/correct tabs | Request tabs | Top 50 tabs