>
 >
Liebesspiel

Liebesspiel Bass Tabs

Lacrimosa - Liebesspiel chords, tabs, tablatures, lyrics

Guitar lessons | Add/correct | Request | Top 50 tabs Artists:  A B C D E F G H I J K L M N O P Q R S T U V W X Y Z 0-9

Liebesspiel Bass Tabs – Lacrimosa

CD, Sheet music, Poster

Do you like Liebesspiel? Share with your friends now
Bass TabsTabs
tune down


F#||------------------|------------------|------------------|------------------|
C#||------------------|------------------|------------------|------------------|
G#||------------------|------------------|------------------|------------------|
D#||------------------|------------------|------------------|------------------|
A#||------------------|------------------|------------------|------------------|

                                                                            

                                                                          
------------------------|------------------------|-----------------------|
------------------------|------------------------|-----------------------|
------------------------|------------------------|-----------------------|
----------3--2--0----0--|----------3--2--0----0--|--0----1--2----2----2--|
--2----2----------------|--2----2----------------|-----------------------|


                                                                         
----------------------|------------------------|------------------------|
----------------------|------------------------|------------------------|
----------------------|------------------------|------------------------|
--2----3----2----0----|----------3--2--0----0--|----------3--2--0----0--|
----------------------|--2----2----------------|--2----2----------------|


                                                                        
-----------------------|----------------------|------------------------|
-----------------------|----------------------|------------------------|
-----------------------|----------------------|------------------------|
--0----1--2----2----2--|--2----3----2----0----|----------3--2--0----0--|
-----------------------|----------------------|--2----2----------------|


                                                                        
------------------------|-----------------------|----------------------|
------------------------|-----------------------|----------------------|
------------------------|-----------------------|----------------------|
----------3--2--0----0--|--0----1--2----2----2--|--2----3----2----0----|
--2----2----------------|-----------------------|----------------------|


                                                                          
------------------------|------------------------|-----------------------|
------------------------|------------------------|-----------------------|
------------------------|------------------------|-----------------------|
----------3--2--0----0--|----------3--2--0----0--|--0----1--2----2----2--|
--2----2----------------|--2----2----------------|-----------------------|


                                                                 
----------------------|---------------------|-------------------|
----------------------|---------------------|-------------------|
----------------------|---------------------|-------------------|
--2----3----2----0----|--4------------4--3--|--2----------------|
----------------------|---------------------|-------------------|


                                                                                
-------------------|-------------------|-------------------|-------------------|
-------------------|-------------------|-------------------|-------------------|
-------------------|-------------------|-------------------|--3----------------|
--0----------------|-------------------|--4----------------|-------------------|
-------------------|--2----------------|-------------------|-------------------|


                                                                           
-------------------|-------------------|----------------------------------|
-------------------|-------------------|----------------------------------|
--4----------------|--7----------------|--4-4-4-4-4-4-4-4-4-4-4-4-4-4-4-4-|
-------------------|-------------------|----------------------------------|
-------------------|-------------------|----------------------------------|


                                                                      
----------------------------------|----------------------------------|
----------------------------------|----------------------------------|
--4-4-4-4-4-4-4-4-4-4-4-4-4-4-4-4-|----------------------------------|
----------------------------------|--4-4-4-4-4-4-4-4-4-4-4-4-4-4-4-4-|
----------------------------------|----------------------------------|


                                                                             
----------------------------------|---------------------|-------------------|
----------------------------------|---------------------|-------------------|
----------------------------------|---------------------|-------------------|
--4-4-4-4-4-4-4-4-4-4-4-4-4-4-4-4-|--4------------4--3--|--2----------------|
----------------------------------|---------------------|-------------------|


                                                                           
-------------------|-------------------|----------------------------------|
-------------------|-------------------|----------------------------------|
-------------------|-------------------|--4-4-4-4-4-4-4-4-4-4-4-4-4-4-4-4-|
--0----------------|-------------------|----------------------------------|
-------------------|--2----------------|----------------------------------|


                                                                      
----------------------------------|----------------------------------|
----------------------------------|----------------------------------|
--4-4-4-4-4-4-4-4-4-4-4-4-4-4-4-4-|----------------------------------|
----------------------------------|--4-4-4-4-4-4-4-4-4-4-4-4-4-4-4-4-|
----------------------------------|----------------------------------|


                                                                             
----------------------------------|---------------------|-------------------|
----------------------------------|---------------------|-------------------|
----------------------------------|---------------------|-------------------|
--4-4-4-4-4-4-4-4-4-4-4-4-4-4-4-4-|--4------------4--3--|--2----------------|
----------------------------------|---------------------|-------------------|


                                                                 
-------------------|-------------------|------------------------|
-------------------|-------------------|------------------------|
-------------------|-------------------|------------------------|
--0----------------|-------------------|----------3--2--0----0--|
-------------------|--2----------------|--2----2----------------|


                                                                        
------------------------|-----------------------|----------------------|
------------------------|-----------------------|----------------------|
------------------------|-----------------------|----------------------|
----------3--2--0----0--|--0----1--2----2----2--|--2----3----2----0----|
--2----2----------------|-----------------------|----------------------|


                                                                          
------------------------|------------------------|-----------------------|
------------------------|------------------------|-----------------------|
------------------------|------------------------|-----------------------|
----------3--2--0----0--|----------3--2--0----0--|--0----1--2----2----2--|
--2----2----------------|--2----2----------------|-----------------------|


                                                                         
----------------------|------------------------|------------------------|
----------------------|------------------------|------------------------|
----------------------|------------------------|------------------------|
--2----3----2----0----|----------3--2--0----0--|----------3--2--0----0--|
----------------------|--2----2----------------|--2----2----------------|


                                                                        
-----------------------|----------------------|------------------------|
-----------------------|----------------------|------------------------|
-----------------------|----------------------|------------------------|
--0----1--2----2----2--|--2----3----2----0----|----------3--2--0----0--|
-----------------------|----------------------|--2----2----------------|


                                                                        
------------------------|-----------------------|----------------------|
------------------------|-----------------------|----------------------|
------------------------|-----------------------|----------------------|
----------3--2--0----0--|--0----1--2----2----2--|--2----3----2----0----|
--2----2----------------|-----------------------|----------------------|


                                                              
---------------------|-------------------|-------------------|
---------------------|-------------------|-------------------|
---------------------|-------------------|-------------------|
--4------------4--3--|--2----------------|--0----------------|
---------------------|-------------------|-------------------|


                                                                                
-------------------|-------------------|-------------------|-------------------|
-------------------|-------------------|-------------------|-------------------|
-------------------|-------------------|--3----------------|--4----------------|
-------------------|--4----------------|-------------------|-------------------|
--2----------------|-------------------|-------------------|-------------------|


                                                       
-------------------|----------------------------------|
-------------------|----------------------------------|
--7----------------|--4-4-4-4-4-4-4-4-4-4-4-4-4-4-4-4-|
-------------------|----------------------------------|
-------------------|----------------------------------|


                                                                      
----------------------------------|----------------------------------|
----------------------------------|----------------------------------|
--4-4-4-4-4-4-4-4-4-4-4-4-4-4-4-4-|----------------------------------|
----------------------------------|--4-4-4-4-4-4-4-4-4-4-4-4-4-4-4-4-|
----------------------------------|----------------------------------|


                                                                             
----------------------------------|---------------------|-------------------|
----------------------------------|---------------------|-------------------|
----------------------------------|---------------------|-------------------|
--4-4-4-4-4-4-4-4-4-4-4-4-4-4-4-4-|--4------------4--3--|--2----------------|
----------------------------------|---------------------|-------------------|


                                                                           
-------------------|-------------------|----------------------------------|
-------------------|-------------------|----------------------------------|
-------------------|-------------------|--4-4-4-4-4-4-4-4-4-4-4-4-4-4-4-4-|
--0----------------|-------------------|----------------------------------|
-------------------|--2----------------|----------------------------------|


                                                                      
----------------------------------|----------------------------------|
----------------------------------|----------------------------------|
--4-4-4-4-4-4-4-4-4-4-4-4-4-4-4-4-|----------------------------------|
----------------------------------|--4-4-4-4-4-4-4-4-4-4-4-4-4-4-4-4-|
----------------------------------|----------------------------------|


                                                                             
----------------------------------|---------------------|-------------------|
----------------------------------|---------------------|-------------------|
----------------------------------|---------------------|-------------------|
--4-4-4-4-4-4-4-4-4-4-4-4-4-4-4-4-|--4------------4--3--|--2----------------|
----------------------------------|---------------------|-------------------|


                                                                           
-------------------|-------------------|----------------------------------|
-------------------|-------------------|----------------------------------|
-------------------|-------------------|--4-4-4-4-4-4-4-4-4-4-4-4-4-4-4-4-|
--0----------------|-------------------|----------------------------------|
-------------------|--2----------------|----------------------------------|


                                                                      
----------------------------------|----------------------------------|
----------------------------------|----------------------------------|
--4-4-4-4-4-4-4-4-4-4-4-4-4-4-4-4-|--4-4-4-4-4-4-4-4-4-4-4-4-4-4-4-4-|
----------------------------------|----------------------------------|
----------------------------------|----------------------------------|


                                                                      
----------------------------------|----------------------------------|
----------------------------------|----------------------------------|
--4-4-4-4-4-4-4-4-4-4-4-4-4-4-4-4-|--3-3-3-3-3-3-3-3-3-3-3-3-3-3-3-3-|
----------------------------------|----------------------------------|
----------------------------------|----------------------------------|


                                                                      
----------------------------------|----------------------------------|
----------------------------------|----------------------------------|
--3-3-3-3-3-3-3-3-3-3-3-3-3-3-3-3-|----------------------------------|
----------------------------------|--4-4-4-4-4-4-4-4-4-4-4-4-4-4-4-4-|
----------------------------------|----------------------------------|


                                                                      
----------------------------------|----------------------------------|
----------------------------------|----------------------------------|
----------------------------------|--4-4-4-4-4-4-4-4-4-4-4-4-4-4-4-4-|
--2-2-2-3-2-2-2-2-2-2-2-2-2-2-2-2-|----------------------------------|
----------------------------------|----------------------------------|


                                                                         
----------------------------------|---|---|---|---|---------------------|
----------------------------------|---|---|---|---|---------------------|
--4-4-4-4-4-4-4-4-4-4-4-4-4-4-4-4-|---|---|---|---|---------------------|
----------------------------------|---|---|---|---|--4------------4--3--|
----------------------------------|---|---|---|---|---------------------|


                                                                               
-------------------|-------------------|-------------------|------------------|
-------------------|-------------------|-------------------|------------------|
-------------------|-------------------|-------------------|------------------|
--2----------------|--0----------------|-------------------|------------------|
-------------------|-------------------|--2----------------|------------------|


                                                                               
------------------|------------------|------------------|---------------------|
------------------|------------------|------------------|---------------------|
------------------|------------------|------------------|---------------------|
------------------|------------------|------------------|--4------------4--3--|
------------------|------------------|------------------|---------------------|


                                                            
-------------------|-------------------|-------------------|
-------------------|-------------------|-------------------|
-------------------|-------------------|-------------------|
--2----------------|--0----------------|-------------------|
-------------------|-------------------|--2----------------|


                                                                      
----------------------------------|----------------------------------|
----------------------------------|----------------------------------|
--4-4-4-4-4-4-4-4-4-4-4-4-4-4-4-4-|--4-4-4-4-4-4-4-4-4-4-4-4-4-4-4-4-|
----------------------------------|----------------------------------|
----------------------------------|----------------------------------|


                                                                      
----------------------------------|----------------------------------|
----------------------------------|----------------------------------|
----------------------------------|----------------------------------|
--4-4-4-4-4-4-4-4-4-4-4-4-4-4-4-4-|--4-4-4-4-4-4-4-4-4-4-4-4-4-4-4-4-|
----------------------------------|----------------------------------|


                                                              
---------------------|-------------------|-------------------|
---------------------|-------------------|-------------------|
---------------------|-------------------|-------------------|
--4------------4--3--|--2----------------|--0----------------|
---------------------|-------------------|-------------------|


                                                       
-------------------|----------------------------------|
-------------------|----------------------------------|
-------------------|--4-4-4-4-4-4-4-4-4-4-4-4-4-4-4-4-|
-------------------|----------------------------------|
--2----------------|----------------------------------|


                                                                      
----------------------------------|----------------------------------|
----------------------------------|----------------------------------|
--4-4-4-4-4-4-4-4-4-4-4-4-4-4-4-4-|----------------------------------|
----------------------------------|--4-4-4-4-4-4-4-4-4-4-4-4-4-4-4-4-|
----------------------------------|----------------------------------|


                                                                             
----------------------------------|---------------------|-------------------|
----------------------------------|---------------------|-------------------|
----------------------------------|---------------------|-------------------|
--4-4-4-4-4-4-4-4-4-4-4-4-4-4-4-4-|--4------------4--3--|--2----------------|
----------------------------------|---------------------|-------------------|


                                                            
-------------------|-------------------|------------------||
-------------------|-------------------|------------------||
-------------------|-------------------|------------------||
--0----------------|-------------------|------------------||
-------------------|--2----------------|------------------||





Comments


Popular Lacrimosa tabs & chords
Ich Verlasse Heunt Dein Herz Bass Tabs
Ich Verlasse Heut Dein Herz Bass Tabs
Copycat Live Tabs
Der Klech Des Lebens Tabs
Ich Verlasse Heunt Dein Hertz Tabs
Lacrimosa Theme Tabs
Make It End Tabs
Satura Live Tabs
Siehst Du Im Licht Tabs
The Party Is Over Ukulele


Song lyrics



↑ Back to top | Tablatures and chords are parodies/interpretations of the original songs. You may use it for private study, scholarship, research or language learning purposes only
© 2014 AZChords.com Contact us | Privacy policy | DMCA | Add/correct tabs | Request tabs | Top 50 tabs