» » »

Liebesspiel Tabs (ver.1)

Artists:  A B C D E F G H I J K L M N O P Q R S T U V W X Y Z # 

Liebesspiel Tabs (ver.1)

Lacrimosa
Rating:
5/5 (1 vote)
Tabs too difficult? Try these video lessons and learn fast.
                BAND: Lacrimosa



Down-D tunning
INTRO:

GUITAR1:
e|-----------------------------------------------------------------|
B|-----------------------------------------------------------------|
G|-----------------------------------------------------------------|
D|--5--x--------------5--x-----------------------------------------|
A|--3--x--4^3/1.----x-3--x--4^3/1.----x-1--2/3-3.--3-3--3/4--3-/1--|
D|-----x--4^3/1.----x----x--4^3/1.----x-1--2/3-3.--3-3--3/4--3-/1--|


|GUITAR1:
|-----------------------------------------------------------------|
|-----------------------------------------------------------------|
|-----------------------------------------------------------------|
|--5--x--------------5--x-----------------------------------------|
|--3--x--4^3/1.----x-3--x--4^3/1.----x-1--2/3-3.--3-3--3/4--3-/1--|
|-----x--4^3/1.----x----x--4^3/1.----x-1--2/3-3.--3-3--3/4--3-/1--|
|GUITAR2:
|-----------------------------------------------------------------|
|----4-4-4-4-4---4-4-4-4-4-4-----------4-----4-----4--------4-----|
|--5-----------5--------------5-----5-----5-----5-----5--5----5-5-|
|-----------------------------------------------------------------|
|-----------------------------------------------------------------|
|-----------------------------------------------------------------|


|GUITAR1:
|-----------------------------------------------------------------|
|-----------------------------------------------------------------|
|-----------------------------------------------------------------|
|--5--x--------------5--x-----------------------------------------|
|--3--x--4^3/1.----x-3--x--4^3/1.----x-1--2/3-3.--3-3--3/4--3-/1--|
|-----x--4^3/1.----x----x--4^3/1.----x-1--2/3-3.--3-3--3/4--3-/1--|
|GUITAR2:
|-----------------------------------------------------------------|
|-4-------4--------4-----4-----4-----4-----------4-----4-----4----|
|------5-----5--------5-----5-----5-----5-----5-----5-----5-------|
|-----------------------------------------------------------------|
|-----------------------------------------------------------------|
|-----------------------------------------------------------------|


|GUITAR1:
|------------------------------------------------------------------|
|------------------------------------------------------------------|
|------------------------------------------------------------------|
|-5----5----5---5----5----5---------------------4----4----4---4----|
|-3-33-3-33-3-3-3-33-3-33-3-3-6----6----6---6---2-22-2-22-2-2-2-2--|
|-----------------------------6-66-6-66-6-6-6-6--------------------|
|   PM   ..   .   ..   ..   .   ..   ..   .   .   ..   ..   .   .
|GUITAR2:
|------------------------------------------------------------------|
|----4-------4----4-----4---4------4--4----4--4----4--4----4--4--4-|
|-5----5--5-----5---------5------5--------5------5------4----------|
|------------------------------------------------------------------|
|------------------------------------------------------------------|
|------------------------------------------------------------------|


|GUITAR1:
|---------------------------------------------------------------|
|---------------------------------------------------------------|
|---------------------------------------------------------------|
|-5----5----5---5----5----5-5//1010101010101010101010101010-----|
|-3-33-3-33-3-3-3-33-3-33-3-3//8-8-8-8-8-8-8-8-8-8-8-8-8-8------|
|----------------------------------------------------------10/--|
|   PM   ..   .   ..   ..
|GUITAR2:
|---------------------------------------------------------------|
|---4--4-----4--4------4----4//1010101010101010-9-9-9-9-9-9-9/--|
|-5------5--5-----5-5----5--5//101010101010101010101010101010/--|
|---------------------------5//101010101010101010101010101010/--|
|---------------------------------------------------------------|
|---------------------------------------------------------------|


|BOTH GUITARS:
|----------------------------------------------------------------|
|----------------------------------------------------------------|FIG1
|----------------------------------------------------------------|
|-5-----------------5--------------------------------------------|X2
|-3--x--4-3-1--1-1--3--x--4-3-1--1-1--1--2-3--3.--3-3.--4.-3.-1.-|
|----x--4-3-1--1-1-----x--4-3-1--1-1--1--2-3--3.--3-3.--4.-3.-1.-|
     PM....    ...     ......    ...





VERSE1:
-FIG1 X2




CHORUS: 
|---------------------------------------------------------------|
|---------------------------------------------------------------|FIG2
|------------------5-----5-5/7-8-10-------------------5-----5/8-|
|--5-------3-------5-----------------5--------3-------5---------|
|--5-------3-------3-----3-3/5-6-8---5--------3-------3-----3/6-|
|--5-------3-------------------------5--------3-----------------|


|----------3.--------3.----3.--------3.--------3.----3.-|
|----------4.--------4.----4.--------4.--------4.----4.-|
|----------5.--------5.----5.--------5.--------5.----5.-|
|----------5.--------5.----5.--------5.--------5.----5.-|---|
|--3-3-3-3-3-3-3-3-3-3-3-3-3-3-3-3-3-3-3-3-3-3-3-3-3-3--|   |
|-------------------------------------------------------|   |
   PM.....   .......   ...   .......   .......   ...        |FIG3   
|-------------------------------------------------------|   |
|---------8.--------8.----8.--------8.--------8.----8.--|   |
|---------7.--------7.----7.--------7.--------7.----7.--|---|
|---------5.--------5.----5.--------5.--------5.----5.--|
|---------5.--------5.----5.--------5.--------5.----5.--|
|-5-5-5-5-5-5-5-5-5-5-5-5-5-5-5-5-5-5-5-5-5-5-5-5-5-5---|
   PM.....   .......   ...  .......   .......   ... 


|-----------------------------------|
|-----------------------------------|FIG2-a
|---------------------5------5/8----|
|--5---------3--------5-------------|
|--5---------3--------3------3/6----|
|--5---------3----------------------|

Repeat  FIG3 X1  and then  FIG2-a X1




VERSE2:
FIG1 X4



CHORUS:
-FIG2 
-FIG3 
-FIG2-a 
-FIG3 
-FIG2-a 



INTERLUDE:
|-------------------------------------------------------------|
|-------------------------------------------------------------|
|-------------------------------------------------------------|
|--5---------5/6--5---------5/6--5---------5/6--5---------5/6-|
|--3-33333333-----3-33333333-----3-33333333-----3-33333333----|
|-------------------------------------------------------------|

|-------------------------------|
|-------------------------------|
|-------------------------------|
|-5---------5/6---5---------5/6-|
|-5-55555555------5-55555555----|
|-------------------------------|

|-----------------------------------------------------------------|
|-----------------------------------------------------------------|
|-----------------------------------------------------------------|
|--5---------5/6---3---------5/6---5---------5/6---5---------5/6.-|
|--5---------------3---------------3-33333333------3-33333333-----|
|--5-55555555------3-33333333-------------------------------------|
 



CHORUS:
-Only keyboards
-FIG2-a
-Only keyboards and then this:
|-----------------------------------|
|-----------------------------------|
|-----------------------------------|
|--5-5-5-5-5.---5-5-5.5.---5-5-5-5--|
|--5-5-5-5-5.---5-5-5.5.---5-5-5-5--|
|--5-5-5-5-5.---5-5-5.5.---5-5-5-5--|

-FIG2-a
-FIG3
-FIG2-a
-FIG3 and finally:
|----------------------------------------------------|
|----------------------------------------------------|
|---------------------5------------------------5-5---|
|--5---------3--------5----5-5-5--5--5-5-5--5--5-5---|
|--5---------3--------3----3-3-3--3--3-3-3--3--3-3---|
|--5---------3---------------------------------------|
                           PM................
            
Tabs too difficult? Try these video lessons and learn fast.


comments powered by Disqus
↑ Back to top | Tablatures and chords are parodies/interpretations of the original songs. You may use it for private study, scholarship, research or language learning purposes only