» » »

Labi Siffre, Bless The Telephone Tabs (ver.2)

Artists:  A B C D E F G H I J K L M N O P Q R S T U V W X Y Z # 

Bless The Telephone Tabs (ver.2)

Labi Siffre Tabs
 Rating:
4/5 (4 votes)
Bless The Telephone lessons Tabs too difficult? Try these video lessons and learn fast
1
                BLESS THE TELEPHONE by Labi Siffre

I've been playing guitar for about 4 years now. This is my first tab. Please feel free 
comment if you have any suggestions.

I think he was out of tune when he recorded, but maybe my tab is just off. Either way it 
ok. Enjoy!

Tuning: EADGBe

intro/verse (x6):

|------7-------------------------------0-------0-------0---0---0---|
|--------------7-------8-------3-------2-------2-------3---3---1---|
|----7---7---7---7---9---9---4---4---2---2---2---2---0---0---0---0-|
|--5-------0-------------------------------2-----------------------|
|------------------7-------2-------0---------------3---------------|
|------------------------------------------------------------------|

After the sixth progression play this outro into the bridge:

|------7-------7-------7-----------|
|----------------------------------|
|----7---7---7---7---7---7---7---7-|
|--5-------0-------5-------0---5---|
|----------------------------------|
|----------------------------------|

bridge (x2):

|------3---3---3-------0---0---0-------0---0---0-------7---7---7---|
|------4---4---4-------3---3---3-------3---3---1-------------------|
|----2---2---2---2---0---0---0---0---0---0---0---0---7---7---7---7-|
|--------------------------------------------------5---------------|
|--2---------------3---------------3-------------------------------|
|------------------------------------------------------------------|

Skip the last bar the second time around and go straight into the verse

verse (x4)

outro:

|------7-------7------7-|
|-----------------------|
|----7---7---7---7----7-|
|--5-------0----------5-|
|-----------------------|
|-----------------------|
            
Submit corrections

comments powered by Disqus
↑ Back to top | Labi Siffre Tabs for Bless The Telephone. Lyrics for acoustic guitar and electric guitar. 1 Tablatures and chords are parodies/interpretations of the original songs. You may use it for private study, scholarship, research or language learning purposes only