» » »

L7, Off The Wagon Tabs (ver.1)

Artists:  A B C D E F G H I J K L M N O P Q R S T U V W X Y Z # 

Off The Wagon Tabs (ver.1)

L7 Tabs
 Rating:
4/5 (4 votes)
Off The Wagon lessons Tabs too difficult? Try these video lessons and learn fast
1
                -------------------------------------------------------------------------------
-------------------------------------------------------------------------------

Tuning: standard


Intro:
e|--------------------------------------------------------------------|
B|--------------------------------------------------------------------|
G|----------------------4-----4--------------------------5-----5------|
D|-/7---7-7-5-5-5-2---2-4-2-2-4-2-2-/7---7-7-5---5-2---2-5-2-2-5-2-2--|
A|-/7---7-7-5-5-5-2---2-2-2-2-2-2-2-/7---7-7-5---5-2---2-3-2-2-3-2-2--|
E|-/5---5-5-3-3-3-0---0---0-0---0-0-/5---5-5-3---3-0---0---0-0---0-0--| x2


Verse:
e|--------------------------------------------------------------------|
B|--------------------------------------------------------------------|
G|--------------------------------------------------------------------|
D|----------------------4-----4--------------------------5-----5------|
A|-/7---7-7-5-5-5-2---2-2-2-2-2-2-2-/7---7-7-5---5-2---2-3-2-2-3-2-2--|
E|-/5---5-5-3-3-3-0---0---0-0---0-0-/5---5-5-3---3-0---0---0-0---0-0--| x3
    x   x x x x x x   x x x x x x x  x   x x x   x x   x x x x x x x 
e|--------------------------------------------------------------------|
B|--------------------------------------------------------------------|
G|-----------------------------------------------------5-5-5-5-5-5----|
D|----------------------4-----4------------------------5-5-5-5-5-5----|
A|-/7---7-7-5-5-5-2---2-2-2-2-2-2-2-/7---7-7-5---5-2---3-3-3-3-3-3----|
E|-/5---5-5-3-3-3-0---0---0-0---0-0-/5---5-5-3---3-0------------------| x1
    x   x x x x x x   x x x x x x x  x   x x x   x    

Chorus: 
e|--------------------------------------------------------------------|
B|--------------------------------------------------------------------|
G|--------------------4-4-4---4-4-4--------------------5-5-5-5-5-5----|
D|-/7---7-7-5-5-5-2---4-4-4---4-4-4-/7---7-7-5---5-2---5-5-5-5-5-5----|
A|-/7---7-7-5-5-5-2---2-2-2---2-2-2-/7---7-7-5---5-2---3-3-3-3-3-3----|
E|-/5---5-5-3-3-3-0-----------------/5---5-5-3---3-0------------------| x2

Verse:
e|--------------------------------------------------------------------|
B|--------------------------------------------------------------------|
G|--------------------------------------------------------------------|
D|----------------------4-----4--------------------------5-----5------|
A|-/7---7-7-5-5-5-2---2-2-2-2-2-2-2-/7---7-7-5---5-2---2-3-2-2-3-2-2--|
E|-/5---5-5-3-3-3-0---0---0-0---0-0-/5---5-5-3---3-0---0---0-0---0-0--| x3
    x   x x x x x x   x x x x x x x  x   x x x   x x   x x x x x x x 
e|--------------------------------------------------------------------|
B|--------------------------------------------------------------------|
G|-----------------------------------------------------5-5-5-5-5-5----|
D|----------------------4-----4------------------------5-5-5-5-5-5----|
A|-/7---7-7-5-5-5-2---2-2-2-2-2-2-2-/7---7-7-5---5-2---3-3-3-3-3-3----|
E|-/5---5-5-3-3-3-0---0---0-0---0-0-/5---5-5-3---3-0------------------| x1
    x   x x x x x x   x x x x x x x  x   x x x   x    

Chorus: 
e|--------------------------------------------------------------------|
B|--------------------------------------------------------------------|
G|--------------------4-4-4---4-4-4--------------------5-5-5-5-5-5----|
D|-/7---7-7-5-5-5-2---4-4-4---4-4-4-/7---7-7-5---5-2---5-5-5-5-5-5----|
A|-/7---7-7-5-5-5-2---2-2-2---2-2-2-/7---7-7-5---5-2---3-3-3-3-3-3----|
E|-/5---5-5-3-3-3-0-----------------/5---5-5-3---3-0------------------| x2

Solo (same as Chorus): 
e|--------------------------------------------------------------------|
B|--------------------------------------------------------------------|
G|--------------------4-4-4---4-4-4--------------------5-5-5-5-5-5----|
D|-/7---7-7-5-5-5-2---4-4-4---4-4-4-/7---7-7-5---5-2---5-5-5-5-5-5----|
A|-/7---7-7-5-5-5-2---2-2-2---2-2-2-/7---7-7-5---5-2---3-3-3-3-3-3----|
E|-/5---5-5-3-3-3-0-----------------/5---5-5-3---3-0------------------| x2

Break:
e|--------------------------------------------------------------------|
B|--------------------------------------------------------------------|
G|-----------------------------------------------------5---5---5---5--|
D|--7-------------------------7-7-7-7------------------5---5---5---5--|
A|--7-------------------------7-7-7-7------------------3---3---3---3--|
E|--5-------------------------5-5-5-5---------------------------------| x2

e|--------------------------------------------------------------------|
B|--------------------------------------------------------------------|
G|-----------------------------------------------------5-5-5-5-5-5-5--|
D|--7-------------------------7-7-7-7------------------5-5-5-5-5-5-5--|
A|--7-------------------------7-7-7-7------------------3-3-3-3-3-3-3--|
E|--5-------------------------5-5-5-5---------------------------------| x1

Chorus: 
e|--------------------------------------------------------------------|
B|--------------------------------------------------------------------|
G|--------------------4-4-4---4-4-4--------------------5-5-5-5-5-5----|
D|-/7---7-7-5-5-5-2---4-4-4---4-4-4-/7---7-7-5---5-2---5-5-5-5-5-5----|
A|-/7---7-7-5-5-5-2---2-2-2---2-2-2-/7---7-7-5---5-2---3-3-3-3-3-3----|
E|-/5---5-5-3-3-3-0-----------------/5---5-5-3---3-0------------------| x6

Outro: 
e|-----------------------------------|
B|-----------------------------------|
G|-----------------------------------|
D|-/7---7-7-5-5-5-2---10--9---7---5--|
A|-/7---7-7-5-5-5-2---10--9---7---5--|
E|-/5---5-5-3-3-3-0---8---7---5---3--| x4

e|---------------------|
B|---------------------|
G|---------------------|
D|--7---------------7--|
A|--7---------------7--|
E|--5---------------5--|

************************************

| /   slide up
| x   Mute note

************************************
            
Submit corrections

comments powered by Disqus
↑ Back to top | L7 Tabs for Off The Wagon. Lyrics for acoustic guitar and electric guitar. 1 Tablatures and chords are parodies/interpretations of the original songs. You may use it for private study, scholarship, research or language learning purposes only