» » »

L7, Bad Things Tabs (ver.1)

Artists:  A B C D E F G H I J K L M N O P Q R S T U V W X Y Z # 

Bad Things Tabs (ver.1)

L7 Tabs
Rating:
0/5 (0 votes)
Hard to play? Try these video lessons and learn fast.
                --------------------------------------------------------------
Artist    :  L7
Song      :  Bad Things
Album     :  The Beauty Process: Triple Platinum
--------------------------------------------------------------
--------------------------------------------------------------


Tuning: Drop D  (DADGBe)

pm = palm mute

Order:
 - intro
 - verse one
 - verse two
 - chorus
 - verse two
 - chorus
 - bridge
 - chorus
 - outro

 
[intro]

pm[  .  . . . . . .  ]x4
e||------------------||
B||------------------||
G||------------------||
D||------------------||
A||--2--2-2-2-2-2-2--||
D||--2--2-2-2-2-2-2--||



[verse one]

pm[     . . . . . .  ]x4  pm[    . . . . . .  ]x4
e||------------------||   ||------------------||
B||------------------||   ||------------------||
G||------------------||   ||------------------||
D||------------------||   ||------------------||
A||--2--2-2-2-2-2-2--||   ||--0--0-0-0-0-0-0--||
D||--2--2-2-2-2-2-2--||   ||--0--0-0-0-0-0-0--||


pm[     . . . . . .  ]x4  pm[    . . . . . .  ]x4
e||------------------||   ||------------------||
B||------------------||   ||------------------||
G||------------------||   ||------------------||
D||------------------||   ||------------------||
A||--2--2-2-2-2-2-2--||   ||--0--0-0-0-0-0-0--||
D||--2--2-2-2-2-2-2--||   ||--0--0-0-0-0-0-0--||
 
 
pm[     . . . . . .     . . . . . .  ]
 e|----------------------------------|
 B|----------------------------------|
 G|----------------------------------|
 D|----------------------------------|
 A|--2--2-2-2-2-2-2--0--0-0-0-0-0-0--|
 D|--2--2-2-2-2-2-2--0--0-0-0-0-0-0--|
 
 
pm[     .    . . .     . . . . . .  ]
 e|---------------------------------|
 B|---------------------------------|
 G|---------------------------------|
 D|---------------------------------|
 A|--2--2-2--2-2-2--0--0-0-0-0-0-0--|
 D|--2--2-2--2-2-2--0--0-0-0-0-0-0--|



[verse two]

pm[  .  . . . . . .  ]x4
e||------------------||
B||------------------||
G||------------------||
D||------------------||
A||--2--2-2-2-2-2-2--||
D||--2--2-2-2-2-2-2--||


pm[     . . . . . .  ]x4  pm[    . . . . . .  ]x4
e||------------------||   ||------------------||
B||------------------||   ||------------------||
G||------------------||   ||------------------||
D||------------------||   ||------------------||
A||--2--2-2-2-2-2-2--||   ||--0--0-0-0-0-0-0--||
D||--2--2-2-2-2-2-2--||   ||--0--0-0-0-0-0-0--||

 
pm[     . . . . . .     . . . . . .  ]
 e|----------------------------------|
 B|----------------------------------|
 G|----------------------------------|
 D|----------------------------------|
 A|--2--2-2-2-2-2-2--0--0-0-0-0-0-0--|
 D|--2--2-2-2-2-2-2--0--0-0-0-0-0-0--|
 
 
pm[     .    . . .     . . . . . .  ]
 e|---------------------------------|
 B|---------------------------------|
 G|---------------------------------|
 D|--2--2-2--2-2-2--0--0-0-0-0-0-0--|
 A|--2--2-2--2-2-2--0--0-0-0-0-0-0--|
 D|--2--2-2--2-2-2--0--0-0-0-0-0-0--|
 
 
pm[     . . . . . .     . . . . . .  ]
 e|----------------------------------|
 B|----------------------------------|
 G|----------------------------------|
 D|----------------------------------|
 A|--2--2-2-2-2-2-2--0--0-0-0-0-0-0--|
 D|--2--2-2-2-2-2-2--0--0-0-0-0-0-0--|
 
 
pm[     .    . . .     . . . . . .  ]
 e|---------------------------------|
 B|---------------------------------|
 G|---------------------------------|
 D|---------------------------------|
 A|--2--2-2--2-2-2--0--0-0-0-0-0-0--|
 D|--2--2-2--2-2-2--0--0-0-0-0-0-0--|
 


[chorus]
 
                                   x2
e||--------------------------------||
B||--------------------------------||
G||--------------------------------||
D||--------------------------------||
A||--7--7--7-7-6-5--5-5-5-9-10-9---||
D||--7--7--7-7-6-5--5-5-5-9-10-9---||

e|----------------------------------|
B|----------------------------------|
G|----------------------------------|
D|----------------------------------|
A|--7--7--7-7-6-5--5-5-5-10-9-10-9--|
D|--7--7--7-7-6-5--5-5-5-10-9-10-9--|

e|------------------------------|
B|------------------------------|
G|------------------------------|
D|------------------------------|
A|--7--7--7-7-6-5--5-5-5-5-5-5--|
D|--7--7--7-7-6-5--5-5-5-5-5-5--|



[bridge]

pm[     . . . . . .     . . .          . . . . . .     . . .
 e|-----------------------------------------------------------------|
 B|-----------------------------------------------------------------|
 G|-----------------------------------------------------------------|
 D|-----------------------------------------------------------------|
 A|--2--2-2-2-2-2-2--2--2-2-2-5-5-3-2--2-2-2-2-2-2--2--2-2-2-5-5-3--|
 D|--2--2-2-2-2-2-2--2--2-2-2-5-5-3-2--2-2-2-2-2-2--2--2-2-2-5-5-3--|


pm[     . . . . . .     . . .         . . . . . .     . . . 
 e|----------------------------------------------------------------|
 B|----------------------------------------------------------------|
 G|----------------------------------------------------------------|
 D|----------------------------------------------------------------|
 A|--2--2-2-2-2-2-2--2--2-2-2-7-7-6-5--5-5-5-5-5-5--5-5-5-5-5-5-3--|
 D|--2--2-2-2-2-2-2--2--2-2-2-7-7-6-5--5-5-5-5-5-5--5-5-5-5-5-5-3--|
 

pm[     . . . . . .  ]x4
e||------------------||
B||------------------||
G||------------------||
D||------------------||
A||--2--2-2-2-2-2-2--||
D||--2--2-2-2-2-2-2--||


pm[     . . . . . .  ]x4  pm[    . . . . . .  ]x4
e||------------------||   ||------------------||
B||------------------||   ||------------------||
G||------------------||   ||------------------||
D||------------------||   ||------------------||
A||--2--2-2-2-2-2-2--||   ||--0--0-0-0-0-0-0--||
D||--2--2-2-2-2-2-2--||   ||--0--0-0-0-0-0-0--||



[outro]

pm[     . . . . . .     . . .        x8
e||----------------------------------||-----|
B||----------------------------------||-----|
G||----------------------------------||-----|
D||----------------------------------||-----|
A||--2--2-2-2-2-2-2--2--2-2-2-5-5-3--||--2--|
D||--2--2-2-2-2-2-2--2--2-2-2-5-5-3--||--2--|




Enjoy :)
            

comments powered by Disqus
↑ Back to top | L7 Tabs for Bad Things. Lyrics for acoustic guitar and electric guitar. Tablatures and chords are parodies/interpretations of the original songs. You may use it for private study, scholarship, research or language learning purposes only